» » »

Unsigned, Beacon Hill-"Last Stand" Tabs (ver.1)

Artists:  A B C D E F G H I J K L M N O P Q R S T U V W X Y Z # 

Beacon Hill-"Last Stand" Tabs (ver.1)

Unsigned Tabs
 Rating:
4/5 (4 votes)
Beacon Hill- Tabs too difficult? Try these video lessons and learn fast
1
                Standard Tuning

Intro:

-----------------------------------------------------------0-2-0-----------0-2-0-----------0-2-0--	Play intro 3X
----------------------------------------------------0-2-3-------3--0-2-3-------3—0-2-3-------3-
--------0-2-3-2--------0-2-3-2--------0-2-3-2----------------------------------------------------
-0-1-3----------0-1-3-----------0-1-3--------------------------------------------------------------

Riff 1:

----------------------------------------
----------------------------------------		Play riff 1 4X
----------------------------------------
-2-2-2-2-5-5-5-5-7-7-7-7-5-5-5-5
-2-2-2-2-5-5-5-5-7-7-7-7-5-5-5-5
-0-0-0-0-3-3-3-3-5-5-5-5-3-3-3-3

Then Play Intro 2X

Then mute riff 1, 4X

Repeat everything and play riff 2.

Riff 2

---------------------------------------		Play riff 2 , 4X
-5-5-5-5-----------------------------
-5-5-5-5-----------------------------
-3-3-3-3-5-5-5-5-7-7-7-7-5-5-5-5
-----------5-5-5-5-7-7-7-7-5-5-5-5
-----------3-3-3-3-5-5-5-5-3-3-3-3


Then Play intro 

And then riff 1, 4X

Then end song by letting final chord of riff 1 ring
            
Submit corrections

comments powered by Disqus
↑ Back to top | Unsigned Tabs for Beacon Hill-"Last Stand". Lyrics for acoustic guitar and electric guitar. 1 Tablatures and chords are parodies/interpretations of the original songs. You may use it for private study, scholarship, research or language learning purposes only