» » »

Unsigned, Band-Pyiphoria Song-Wounds Tabs (ver.1)

Artists:  A B C D E F G H I J K L M N O P Q R S T U V W X Y Z # 

Band-Pyiphoria Song-Wounds Tabs (ver.1)

Unsigned Tabs
 Rating:
4/5 (4 votes)
Band-Pyiphoria Song-Wounds lessons Tabs too difficult? Try these video lessons and learn fast
                Written by Jason Shadoan


Standard Tuning

Into x2      Clean

e -----------------------------------------------------------------------------------------------------------------------------------------
B -----------------------------------------------------------------------------------------------------------------------------------------
G -----------------------------------------------------------------------------------------------------------------------------------------
D ---------0--------0----------0----------0-------0---------0--------0--------0---------0----------0-------0--------0--------------
A -------9--9-----7--7----10--10-----5--5----7--7-----4---4---9--9-----7--7---10--10----5--5----7--7----4--4------------
E -----7---------5--------8------------3--------5--------2--------7--------5--------8----------3--------5--------2-----------------

Intro cont. x4   Clean

e -------------------------------------------------------------------------------------------------------------------------------------------
B ------------------------------------------------------------------------------------------------------------------------------------------
G ---------0--------0----------0----------0-------0---------0--------0--------0---------0----------0-------0--------0---------------
D -------9--9-----7--7----10--10-----5--5----7--7-----4---4---9--9-----7--7---10--10----5--5----7--7----4--4--------------
A -----7---------5--------8------------3--------5--------2--------7--------5--------8----------3--------5--------2------------------
E ------------------------------------------------------------------------------------------------------------------------------------------

Verse 1 x2     Distortion Gtr. 1 

e -------------------------------------------------------------------------------------------------------------------------------------------
B ------------------------------------------------------------------------------------------------------------------------------------------
G ------------------------------------------------------------------------------------------------------------------------------------------
D ---------11--------7--------9--------7-------5-------4-------11---------7--------9-------7--------5-------4---------------------
A ------11--11----7--7----9--9----7--7----5--5---4--4---11--11----7--7----9--9----7--7----5--5---4--4--------------------
E -----9-----------5-------7--------5--------3------2-------9-----------5-------7--------5--------3-------2------------------------

Chorus x3 Both Guitars

e -------------------------------------------------------------------------------------------------------------------------------------------
B ------------------------------------------------------------------------------------------------------------------------------------------
G -----------------------------------------------------------------5-5-5-5-5--7-7-7-7-7--4-4-4-4-4-4-4-4-4-4-4----------------
D ----9-9-9-9-9-9--7-7-7-7-7-7--10-10-10-10-10-10--5-5-5-5-5--7-7-7-7-7--4-4-4-4-4-4-4-4-4-4-4----------------
A ----9-9-9-9-9-9--7-7-7-7-7-7--10-10-10-10-10-10--3-3-3-3-3--5-5-5-5-5--2-2-2-2-2-2-2-2-2-2-2----------------
E ----7-7-7-7-7-7--5-5-5-5-5-5--8----8---8--8---8---8---------------------------------------------------------------------------

Verse 2 x2 Guitar 2 while guitar 1 plays verse 1

e -------------------------------------------------------------------------------------------------------------------------------------------
B ------------------------------------------------------------------------------------------------------------------------------------------
G -----0---0---0---0---0---0---0---0----0---0---0---0---0---0---0---0---0---0---0---0---0---0---0---0---0---0---0---------
D ----9---9---9---7---7---7--10--10--10--5---5---5---7---7---7---4---4---4---9---9---9---5---5---5---4---4---4----------
A ---7---7---7---5---5---5--8----8----8---3---3---3---5---5---5---2---2---2---7---7---7---3---3---3---2---2---2-----------
E ------------------------------------------------------------------------------------------------------------------------------------------

Outro x3 Both Guitars

e -------------------------------------------------------------------------------------------------------------------------------------------
B ------------------------------------------------------------------------------------------------------------------------------------------
G ---------0--------0----------0----------0-------0---------0--------0--------0---------0----------0-------0--------0--Let ring
D -------9--9-----7--7----10--10-----5--5----7--7-----4---4---9--9-----7--7---10--10----5--5----7--7----4--4-on last 
A -----7---------5--------8------------3--------5--------2--------7--------5--------8----------3--------5--------2-------time
E ------------------------------------------------------------------------------------------------------------------------------------------
            
Submit corrections

comments powered by Disqus
↑ Back to top | Unsigned Tabs for Band-Pyiphoria Song-Wounds. Lyrics for acoustic guitar and electric guitar. Tablatures and chords are parodies/interpretations of the original songs. You may use it for private study, scholarship, research or language learning purposes only