» » »

Unsigned, Bananafish~Fillet-Funk Tabs (ver.1)

Artists:  A B C D E F G H I J K L M N O P Q R S T U V W X Y Z # 

Bananafish~Fillet-Funk Tabs (ver.1)

Unsigned Tabs
 Rating:
4/5 (4 votes)
Bananafish~Fillet-Funk lessons Tabs too difficult? Try these video lessons and learn fast
                By Demosthenes2
*= let note ring
x= palm mute
Standard Tuning
Clean tone 

e-------------------I
b-------------------I
g-------------------I
d-------------------I
a-------------------I
ex-x-x-x-x-x-x-x-x--Ix2

e-------------------I
b-------------------I
g-------------------I
d-------------------I
a-------------------I
e2-2-2-2-2-2-2-2-2-2Ix3


e-------------------I
b-------------------I
g-------------------I
d--9---6---4-4-4----I
a-9-9-6-6-4-4-4-----I
e9---6---4----------Ix3

e--------------------------------13*-I
b-----13*-----11*-----11*------11----I
g---11------9-------9----------------I
d------------------------10----------I
a-10------8------8-------9-----------I
e9-------8------7--------------------Ix3


e--------------------I
b--------------------I
g--------------------I
d---11-----9----6-6-6I
a-10--10--8-8--5-5-5-I
e9-------7----5------Ix2



Thanx if u read i would like to know.if u like it i will have more up.thanx from BananaFish~Fillet, the newest Funk Rock band. will update as song goes on.
            
Submit corrections

comments powered by Disqus
↑ Back to top | Unsigned Tabs for Bananafish~Fillet-Funk. Lyrics for acoustic guitar and electric guitar. Tablatures and chords are parodies/interpretations of the original songs. You may use it for private study, scholarship, research or language learning purposes only