» » »

Ballad Style Chord Variations Tabs (ver.1)

Artists:  A B C D E F G H I J K L M N O P Q R S T U V W X Y Z # 

Ballad Style Chord Variations Tabs (ver.1)

Unsigned
Rating:
0/5 (0 votes)

Hard to play? Try these video lessons and learn fast.
                e  --2--2--2--3*----3--3--2--0--0--0--0*----2--2--0*---------
b  --3--3--3--3*----3--3--3--3--3--3--3*----3--3--3*---------
g  --2--2--2--2*----2--2--2--2--2--2--2*----2--2--2*--------- x2
d  ----------------------------------------------------------
a  ----------------------------------------------------------
e  ----------------------------------------------------------

e  --2--2--2--3*----3--3--2--0--0--0--0*----2--2--0----------
b  --3--3--3--3*----3--3--3--3--3--3--3*----3--3--3----------
g  --0--0--0--0*----0--0--0--0--0--0--0*----0--0—0----------- x2
d  ----------------------------------------------------------
a  ----------------------------------------------------------
e  ----------------------------------------------------------

e  --2--2--2--3*----3--3--2--0--0--0--0*----2--2--0*---------
b  --3--3--3--3*----3--3--3--3--3--3--3*----3--3--3*---------
g  --2--2--2--2*----2--2--2--2--2--2--2*----2--2--2*--------- x2
d  ----------------------------------------------------------
a  ----------------------------------------------------------
e  ----------------------------------------------------------

e  --2--2--2--3*----3--3--2--0--0--0--0*----2--2--0--------
b  --3--3--3--3*----3--3--3--3--3--3--3*----3--3--3--------
g  --0--0--0--0*----0--0--0--0--0--0--0*----0--0--0-------- x2
d  --------------------------------------------------------
a  --------------------------------------------------------
e  --------------------------------------------------------
            
Hard to play? Try these video lessons and learn fast. | Correct




comments powered by Disqus
↑ Back to top | Tablatures and chords are parodies/interpretations of the original songs. You may use it for private study, scholarship, research or language learning purposes only