» » »

Unsigned, Bailey Drive- Insomnia Tabs (ver.1)

Artists:  A B C D E F G H I J K L M N O P Q R S T U V W X Y Z # 

Bailey Drive- Insomnia Tabs (ver.1)

Unsigned Tabs
 Rating:
4/5 (4 votes)
Bailey Drive- Insomnia lessons Tabs too difficult? Try these video lessons and learn fast
1
                -Jason Lowery

  Clean                                          Verse- Guitar 1
-------------0---------------------------0---------------------0------------------------0---------
--------6-------6----6-------------6------6----6--------6------6-----6---------6-------6-----6----
-----7----7-------7------------7----7-------7--------7----7-------7---------7----7--------7-------x8      
--5--------------------------5-----------------------0-----------------------0--------------------


  Distorted                                     Chorus- Guitar 1
-----------------11--------------------11-------9------7-------9------7-----------------------------
-0---------------------0-------------------------------------------------------------------------------x4
-0---------------9----0----------------9--------7------5-------7------5-----------------------------
-0---------------------0-------------------------------------------------------------------------------


  Distorted                                      Chorus- Guitar 2
-----------------11-------------------11------------------------------------------------------------
--0---------------------0---------------------11------------------------7---------------------------
--0--------------9-----0--------------9-------9------------------------5----------------------------
--0---------------------0----------------------9------------------------5----------------------------


 Distorted                                         Solo- Guitar one
---16-----12------16------12-----10-----9------7------7----------------------------------------------

--18-----14-----18-----19------14-----12----11-----9------------------------------------------------
--16-----12-----16-----17------12-----10-----9------7---------0-------------------------------------
            
Submit corrections

comments powered by Disqus
↑ Back to top | Unsigned Tabs for Bailey Drive- Insomnia. Lyrics for acoustic guitar and electric guitar. 1 Tablatures and chords are parodies/interpretations of the original songs. You may use it for private study, scholarship, research or language learning purposes only