» » »

Unsigned, Backyard Wreck - Hello Tabs (ver.1)

Artists:  A B C D E F G H I J K L M N O P Q R S T U V W X Y Z # 

Backyard Wreck - Hello Tabs (ver.1)

Unsigned Tabs
Rating:
0/5 (0 votes)
Backyard Wreck - Hello lessons Tabs too difficult? Try these video lessons and learn fast
                verse
E--------------------------------------------------
B--------------------------------------------------
G-22222--------22222--------77777------------------
D-22222-333-3--22222-333-3--77777-444-4--(repeat)--
A-00000-333-3--00000-333-3--55555-444-4------------
E-------111-1--------111-1------222-2--------------
  \_______/    \_______/    \_____/
      P.M.       P.M.         P.M.  

E----------------------------------------------
B----------------------------------------------
G-----------------------77777-XX---------------
D-----77777-XX-3333-XX--77777-XX-4444----------
A-----77777-XX-3333-XX--55555-XX-4444----------
E-----55555-XX-1111-XX-----------2222----------

chorus    
E---------------------------------------
B---------------------------------------
G---------------------------------------
D--7-7-7-7-7-7-7-7--3-3-3-3--(repeat)---
A--7-7-7-7-7-7-7-7--3-3-3-3-------------
E--5-5-5-5-5-5-5-5--1-1-1-1------------- 
  PM  PM  PM  PM    PM  PM
            
Submit corrections

comments powered by Disqus
↑ Back to top | Unsigned Tabs for Backyard Wreck - Hello. Lyrics for acoustic guitar and electric guitar. Tablatures and chords are parodies/interpretations of the original songs. You may use it for private study, scholarship, research or language learning purposes only