» » »

Unsigned, Backup Plan - Mmm Midget Tabs (ver.1)

Artists:  A B C D E F G H I J K L M N O P Q R S T U V W X Y Z # 

Backup Plan - Mmm Midget Tabs (ver.1)

Unsigned Tabs
 Rating:
4/5 (4 votes)
Backup Plan - Mmm Midget lessons Tabs too difficult? Try these video lessons and learn fast
                I wrote it. It's right. Maybe. I hope.

Key:

h= hammer on
p= pull off
*= strum 16x 
"= strum 8x
#= strum 4x

Intro (Guitar 1) (4x)

E|---------------------------------------------------------------------------||
B|---------------------------------------------------------------------------||
G|---------------------------------------------------------------------------||
D|---------------------------------------------------------------------------||
A|---------------------------------------------------------------------------||
E|----------------------7-7-7--5-5--2-3-2h3p2h3p0----------------------------||

Intro (Guitar 2) (2x)

E|---------------------------------------------------------------------------||
B|---------------------------------------------------------------------------||
G|----9-9-9------------------------------------------------------------------||
D|----9-9-9----7-7----4-4-4----5-5-------------------------------------------||
A|----7-7-7----7-7----4-4-4----5-5-------------------------------------------||
E|----7-7-7----5-5----2-2-2----3-3-------------------------------------------||

Verse (Both guitars)(1x)

E|---------------------------------------------------------------------------||
B|----------------------------------------3~---------------------------------||
G|---*7--------"5---"5---"7---"7----4~----x----------------------------------||
D|----7---*7----5----5----7----7----4~----2~--hold---------------------------||
A|----5----7----3----2----5----4----2~----3~---------------------------------||
E|----5----5----3----2----5----4----2~---------------------------------------||

Chorus (Guitar 1)(4x)

E|---------------------------------------------------------------------------||
B|---------------------------------------------------------------------------||
G|---------------------------------------------------------------------------||
D|----3---------------------------3------------------------------------------||
A|------5-3-0-----------------------5-3-0------------------------------------||
E|---------------1-1-3-5-5-3-3---------------1-1-3-5-3-1-1--(hold-4th-time)--||

Chorus (Guitar 2) (4x)

E|---------------------------------------------------------------------------||
B|---------------------------------------------------------------------------||
G|----6----5---#3---#2----6----5---------------------------------------------||
D|----5----5----3----2----5----5----2-2--3~----------------------------------||
A|----3----3----1----0----3----3----2-2--1~--(hold-4th-time)-----------------||
E|----3----3----1----0----3----3----0-0--1~----------------------------------||
            
Submit corrections

comments powered by Disqus
↑ Back to top | Unsigned Tabs for Backup Plan - Mmm Midget. Lyrics for acoustic guitar and electric guitar. Tablatures and chords are parodies/interpretations of the original songs. You may use it for private study, scholarship, research or language learning purposes only