» » »

Unsigned, Aurora - To You Tabs (ver.1)

Artists:  A B C D E F G H I J K L M N O P Q R S T U V W X Y Z # 

Aurora - To You Tabs (ver.1)

Unsigned Tabs
 Rating:
4/5 (4 votes)
Aurora - To You lessons Tabs too difficult? Try these video lessons and learn fast
1
                Verse 1
E|-------------------------------------|
B|-------------------------------------|
G|-------------------------------------|     Repeat 4 times 
D|---0-0---0-0---0--0--0--0------------|
A|--9-9---7-7---5--5--5--5-------------|
E|-9-9---7-7---5--5--5--5--------------|

Chorus.
E|-------------------------------------|
B|----------------333333---------------|
G|-------777777---222222---------------|      
D|-77777/777777---000000---------------|     Repeat.
A|-44444/555555---000000---------------|
E|-44444/555555---000000---------------|

Verse 2
E|-------------------------------------|
B|-------------------------------------|
G|-777-777-77777-----------------------|     Repeat.  
D|-000-000-00000-----------------------|
A|-999-777-55555-----------------------|
E|-999-777-55555-----------------------|

chorus
E|-------------------------------------|
B|---------------333333----------------|
G|------777777---222222----------------|      
D|-7777/777777---000000----------------|
A|-4444/555555---000000----------------|
E|-4444/555555---000000----------------|

Verse 3
E|-------------------------------------|
B|-------------------------------------|
G|-77--77--7777777---------------------|      
D|-00--00--0000000---------------------|
A|-99--77--5555555---------------------|
E|-99--77--5555555---------------------|

Then the chorus for the last time.
            
Submit corrections

comments powered by Disqus
↑ Back to top | Unsigned Tabs for Aurora - To You. Lyrics for acoustic guitar and electric guitar. 1 Tablatures and chords are parodies/interpretations of the original songs. You may use it for private study, scholarship, research or language learning purposes only