» » »

Audio Mayhem Project - Moment Of Glory Bass tabs (ver.1)

Artists:  A B C D E F G H I J K L M N O P Q R S T U V W X Y Z # 

Audio Mayhem Project - Moment Of Glory Bass tabs (ver.1)

Unsigned
Rating:
0/5 (0 votes)
Tabs too difficult? Try these video lessons and learn fast.
                Intro

G|-1919-19-19-19-19-19-19-19-19-19-19--77-7-7-7-7-7-7-7-7-7-7-----------------------|
D|-0---------------------------------0---------------------------0------------------|
A|---------------------------------------------------------------5-5555555-5-5-5-5--|
D|----------------------------------------------------------------------------------|

G|-------------------------|---------------------------1(x8)----|
D|-0-----------------------|---0(x8)---3(x8)—1(x8)------------*-|  4 times
A|-------------------------|----------------------------------*-|
D|-0-0-0-0-0-0-0-0-0-0-0-0-|-0~~~--let ring—(slap)--------------|

Pre Chorus  (Slap)

G|------------------------------------------------------------------------|
D|------------------------------------------------------------------------|
A|------------------------------------------------------------------------|
D|--0-0-0-33-1-1-1-3----0-0-0-33-1-1\6---0-0-0-33-1-1-1-3---0-0-0-33-5555-|


Chorus (Slap)

G|-----------------------------------------------------------------------|
D|-----------------------------------------------------------------------| repeat 
A|-----------------------------------------------------------------0h3h5-|
D|--000--3--000--1--000--3--00--5----000-3-000--1-000-3-00-0h3h5---------|

Verse

G|--------------------------------------------------------------------------------|
D|--------------------------------------------------------------------------------|
A|--------------------------------------------------------------------------------|
D|-000000-333333-111111/66666---000000-333333-111111/66666------------------------|

G|---------------------------------------------------------------|
D|-------------------------------------------------------------*-| play twice
A|-------------------------------------------------------------*-|
D|-0-0-0-0-0-0--3-3-3-3-3-3--1-1-1-1-1-1--6-6-6-6----------------|

G|--------------------------------------------------------------------------------|
D|--------------------------------------------------------------------------------|
A|--------------------------------------------------------------------------------|
D|-000000-333333-111111/66666---000000-333333-111111/66666------------------------|

Intro
Pre-Chorus  (guitar intro)
Chorus
Verse 1
Pre-Chorus
Chorus
Verse 2
Pre-Chorus
Chorus     (guitar solo)
Verse        (guitar solo)
Pre-Chorus  (guitar solo)
Chorus X2
End on Low D
            
Tabs too difficult? Try these video lessons and learn fast.


comments powered by Disqus
↑ Back to top | Tablatures and chords are parodies/interpretations of the original songs. You may use it for private study, scholarship, research or language learning purposes only