» » »

Unsigned, Audibel - First Song Tabs (ver.1)

Artists:  A B C D E F G H I J K L M N O P Q R S T U V W X Y Z # 

Audibel - First Song Tabs (ver.1)

Unsigned Tabs
Rating:
0/5 (0 votes)
Audibel - First Song lessons Tabs too difficult? Try these video lessons and learn fast
                Audibel
(band name)
First Song

Song One).................              / =slide up                    \ =slide down   | = pause
                                                                                                                          
e----------------------------------------------------------------------------------------------------------------------------------
b----------------------------------------------------------------------------------------------------------------------------------
g----------------------------------------------------------------------------------------------------------------------------------
d-------------------------------------------------------------2---2---2---2---x---4---5---5---5--/----7--x-x-x---9---10---10---10---/-------
a-------------------------------------------------------------2---2---2---2---x---4---5---5---5--/----7--x-x-x---9---10---10---10---/-----
E--------0--|-2---3--|-5--|-7---8--|-12---10--|-12---8--------0---0---0---0---x---2---3---3---3--/----5--x-x-x---7----8----8----8----/--------
                                                                          ^                                        
                                                        start Distortion here

e------------------------------------------------------------------------------------------------------------------
b------------------------------------------------------------------------------------------------------------------
g------------------------------------------------------------------------------------------------------------------
d---14---14---14---\---12---12---/---14---14---14---14---\---9---10---10---10---9-------------------
a---14---14---14---\---12---12---/---14---14---14---14---\---9---10---10---10---9-------------------
E---12---12---12---\---10---10--/---12---12---12---12---\---7----8----8----8----7---------------------



e----------------------------------------------------------------------------------------------------------------------------------
b----------------------------------------------------------------------------------------------------------------------------------
g----------------------------------------------------------7---7---7---7---7---7---7---7---7---7---7---7---7---7---7---7-
d---2---2---2---2---2---2---5---5---5---5---5---5---7---7---7---7---7---7---7---7---7---7---7---7---7---7---7---7-
a---2---2---2---2---2---2---5---5---5---5---5---5---5---5---5---5---5---5---5---5---5---5---5---5---5---5---5---5-
E---0---0---0---0---0---0---3---3---3---3---3---3---------------------------------------------------------------------------



e----------------------------------------------------------------------------------------------------------------------------------
b----------------------------------------------------------------------------------------------------------------------------------
g----------------------------------------------------------7---7---7---7---7---7---7---7--------------------------------------
d---2---2---2---2---2---2---5---5---5---5---5---5---7---7---7---7---7---7---7---7---7---7---7---5---5---5----------
a---2---2---2---2---2---2---5---5---5---5---5---5---5---5---5---5---5---5---5---5---7---7---7---5---5---5----------
E---0---0---0---0---0---0---3---3---3---3---3---3---------------------------------------5---5---5---3---3---3-----------


e----------------------------------------------------------------------------------------------------------------------------------
b----------------------------------------------------------------------------------------------------------------------------------
g-------------------------------5---5---5---5---5---5---5---5--------------------------7---7---7---7---7---7---7---7---7-
d---2---2---2---2---2---2---5---5---5---5---5---5---5---5---5---5---5---5---5---7---7---7---7---7---7---7---7---7--
a---2---2---2---2---2---2---3---3---3---3---3---3---3---3---5---5---5---5---5---5---5---5---5---5---5---5---5---5--
E---0---0---0---0---0---0---------------------------------------3---3---3---3---3--------------------------------------------


e----------------------------------------------------------------------------------------------------------------------------------
b----------------------------------------------------------------------------------------------------------------------------------
g-------------------------------5---5---5---5---5---5---5---5--------------------------7---7---7---7---7---7---7---7---7-
d---2---2---2---2---2---2---5---5---5---5---5---5---5---5---5---5---5---5---5---7---7---7---7---7---7---7---7---7--
a---2---2---2---2---2---2---3---3---3---3---3---3---3---3---5---5---5---5---5---5---5---5---5---5---5---5---5---5--
E---0---0---0---0---0---0---------------------------------------3---3---3---3---3--------------------------------------------


and repeat....>>>>>
            
Submit corrections

comments powered by Disqus
↑ Back to top | Unsigned Tabs for Audibel - First Song. Lyrics for acoustic guitar and electric guitar. Tablatures and chords are parodies/interpretations of the original songs. You may use it for private study, scholarship, research or language learning purposes only