» » »

Unsigned, Asswipes - Tedm Tabs (ver.1)

Artists:  A B C D E F G H I J K L M N O P Q R S T U V W X Y Z # 

Asswipes - Tedm Tabs (ver.1)

Unsigned Tabs
Rating:
0/5 (0 votes)
Asswipes - Tedm lessons Tabs too difficult? Try these video lessons and learn fast
                Drop D Tuning. Half-Time Feel. A really simple song and catchy too. But, this site doesn't allow lyrics so you'll never know.



  Chorus
D|----------------|----------------|----------------|----------------|
A|----------------|----------------|----------------|----------------|
F|7---7-7-7---7-7-|----------------|9---9-9-7---7-7-|----------------|
C|7---7-7-7---7-7-|7---7-7-7---7-7-|9---9-9-7---7-7-|7---7-7-7---7-7-|
G|5---5-5-5---5-5-|7---7-7-7---7-7-|7---7-7-5---5-5-|7---7-7-7---7-7-|
C|----------------|7---7-7-7---7-7-|----------------|7---7-7-7---7-7-|


  Verse
D|----------------------|----------------|----------------|----------------|
A|----------------------|----------------|----------------|----------------|
F|11---11-11-11---11-11-|7---7-7-7---7-7-|9---9-9-9---9-9-|9-9-9-9-9---9-9-|
C|11---11-11-11---11-11-|7---7-7-7---7-7-|9---9-9-9---9-9-|9-9-9-9-9---9-9-|
G|-9----9--9--9----9--9-|5---5-5-5---5-5-|7---7-7-7---7-7-|7-9-7-7-7---7-7-|
C|----------------------|----------------|----------------|----------------|

D|----------------------|----------------|----------------|----------------|
A|----------------------|----------------|----------------|----------------|
F|11---11-11-11---11-11-|7---7-7-7---7-7-|9---9-9-9---9-9-|9---------------|
C|11---11-11-11---11-11-|7---7-7-7---7-7-|9---9-9-9---9-9-|9---------------|
G|-9----9--9--9----9--9-|5---5-5-5---5-5-|7---7-7-7---7-7-|7---------------|
C|----------------------|----------------|----------------|----------------|


  End
D|----------------|----------------|
A|----------------|----------------|
F|----------------|----------------|
C|7---------------|----------------|
G|7---------------|----------------|
C|7---------------|----------------|
            
Submit corrections

comments powered by Disqus
↑ Back to top | Unsigned Tabs for Asswipes - Tedm. Lyrics for acoustic guitar and electric guitar. Tablatures and chords are parodies/interpretations of the original songs. You may use it for private study, scholarship, research or language learning purposes only