» » »

Unsigned, Argenious-Fatal Faults Tabs (ver.1)

Artists:  A B C D E F G H I J K L M N O P Q R S T U V W X Y Z # 

Argenious-Fatal Faults Tabs (ver.1)

Unsigned Tabs
Rating:
0/5 (0 votes)
Argenious-Fatal Faults lessons Tabs too difficult? Try these video lessons and learn fast
                This is one of my bands songs...i made it up a little while ago...alot of people think its good...i dunno to tell the truth, you judge

CGCFAD tuning

<#>= pinch harmonic

Riff 1(heavy distortion)
D|---------------------------
A|---------------------------
F|----------5-6-5-8-5-6-5----(x 3 palm muted)
C|-0-0--0-0------------------
G|-0-0--0-0------------------
C|-0-0--0-0------------------

Riff 2(heavy dist.)
D|---------------------------
A|---------------------------
F|----------5-6-5-8-5-6------(then back to riff 1 no palm mute)
C|-0-0--0-0------------------
G|-0-0--0-0------------------
C|-0-0--0-0------------------

Riff 3(heavy dist.)
D|---------------------------
A|---------------------------
F|----------5-6-5-8-5-6--<7>-
C|-0-0--0-0------------------
G|-0-0--0-0------------------
C|-0-0--0-0------------------
P.M.        ............

Riff 4(clean, maybe try with chorus or flange, whole thing x2. also play really fast)
D|----------------------------
A|----------------------------
F|----------------------------
C|-0-7-0-8-0-7-0--0-7-0-8-0-7-
G|----------------------------
C|----------------------------

D|----------------------------
A|----------------------------
F|----------------------------
C|-0-5-0-6-0-5-0--0-5-0-6-0-5-
G|----------------------------
C|----------------------------

D|---------------------------
A|---------------------------
F|---------------------------
C|-0-3-0-4-0-3-0--0-3-0-4-0-3
G|---------------------------
C|---------------------------

Go back to riff 1, 2, and 3(no palm mut except on riff 3)

thass all so far...i'll work on a solo and interlude
            

comments powered by Disqus
↑ Back to top | Unsigned Tabs for Argenious-Fatal Faults. Lyrics for acoustic guitar and electric guitar. Tablatures and chords are parodies/interpretations of the original songs. You may use it for private study, scholarship, research or language learning purposes only