» » »

Unsigned, Archeive Bass tabs (ver.1)

Artists:  A B C D E F G H I J K L M N O P Q R S T U V W X Y Z # 

Archeive Bass tabs (ver.1)

Unsigned Tabs
 Rating:
4/5 (4 votes)
Archeive lessons Tabs too difficult? Try these video lessons and learn fast
1
                E----------------
A----------------       (PLAY ONCE) BEGINING
D------3-----3-----3
G-0-3-4-0-3-4-0-3-4-0

E------------
A------------
D------3-----3-0
G-0-3-4-0-3-4

E-33333333-55555555-77777777-55555555
A--------------------------------
D------------------------------
G------------------------------

THEN AFTER THIS PLAY THE BEGINING AND THATS IT JUST KEEP PLAYING IT OVER AND OVER
            
Submit corrections

comments powered by Disqus
↑ Back to top | Unsigned Bass for Archeive. Lyrics for acoustic guitar and electric guitar. 1 Tablatures and chords are parodies/interpretations of the original songs. You may use it for private study, scholarship, research or language learning purposes only