>
 >
Ap@Kolyptix Sylentze- Faith No More

Ap@Kolyptix Sylentze- Faith No More Guitar Tabs

Unsigned - Ap@Kolyptix Sylentze- Faith No More chords, tabs, tablatures, lyrics

Guitar lessons | Add/correct | Request | Top 50 tabs Artists:  A B C D E F G H I J K L M N O P Q R S T U V W X Y Z 0-9

Ap@Kolyptix Sylentze- Faith No More Guitar Tabs – Unsigned

CD, Sheet music, Poster

Do you like Ap@Kolyptix Sylentze- Faith No More? Share with your friends now
Tabs
ApOk@LyPtiX SiLeNtZe
Faith No More

Intro (Just Derek Playing) x1
-------------------------------------------------:---------------------------------------------l
-------------------------------------------------:---------------------------------------------l
-------------------------------------------------:---------------------------------------------l
-5-5-5-55-5-7-7-7-77-7-9-9-9-99-9-9-9-9-9-99-9-9-:-5-5-5-55-5-7-7-7-77-7-2-2-2-22-2-9-9-9-99-9-l
-3-3-3-33-3-5-5-5-55-5-7-7-7-77-7-7-7-7-7-77-7-7-:-3-3-3-33-3-5-5-5-55-5-0-0-0-00-0-7-7-7-77-7-l
-------------------------------------------------:---------------------------------------------l

Verse (Beau,Shawn,& Joe Come In) x2
------------------Beau--------------------------------------------------------------------l
-5-5-5-55-5-7-7-7-77-7-9-9-9-99-9-9-9-9-99-9--5-5-5-55-5-7-7-7-77-7-2-2-2-22-2-9-9-9-99-9-l
-3-3-3-33-3-5-5-5-55-5-7-7-7-77-7-7-7-7-77-7--3-3-3-33-3-5-5-5-55-5-0-0-0-00-0-7-7-7-77-7-l

------------------Derek-----------------------------------------------------------------------l
-5-5-5-55-5-7-7-7-77-7-9-9-9-99-9-9-9-9-----------5-5-5-55-5-7-7-7-77-7-2-2-2-22-2-9-9-9-99-9-l
-3-3-3-33-3-5-5-5-55-5-7-7-7-77-7-7-7-7/19-17-15--3-3-3-33-3-5-5-5-55-5-0-0-0-00-0-7-7-7-77-7-l

Course x2
------------------Beau--------------------------------------------------------------------l
-3-3-3-33-3-5-5-5-55-5-7-7-7-77-7-7-7-7-77-7--3-3-3-33-3-5-5-5-55-5-0-0-0-00-0-7-7-7-77-7-l
-3-3-3-33-3-5-5-5-55-5-7-7-7-77-7-7-7-7-77-7--3-3-3-33-3-5-5-5-55-5-0-0-0-00-0-7-7-7-77-7-l

-3-3-3-33-3-5-5-5-55-5--------------------------3-3-3-33-3-----------------------7-7-7-77-7-l
-----------------Derek-7-7-7-77-7-7-7-7--------------------5-5-5-55-5-----------------------l
-3-3-3-33-3-5-5-5-55-5-7-7-7-77-7-7-7-7/191919--3-3-3-33-3-5-5-5-55-5-0-0-0-00-0-7-7-7-77-7-l
-3-3-3-33-3-5-5-5-55-5-7-7-7-77-7-7-7-7/191919--3-3-3-33-3-5-5-5-55-5-0-0-0-00-0-7-7-7-77-7-l

verse x2
------------------Beau--------------------------------------------------------------------l
-5-5-5-55-5-7-7-7-77-7-9-9-9-99-9-9-9-9-99-9--5-5-5-55-5-7-7-7-77-7-2-2-2-22-2-9-9-9-99-9-l
-3-3-3-33-3-5-5-5-55-5-7-7-7-77-7-7-7-7-77-7--3-3-3-33-3-5-5-5-55-5-0-0-0-00-0-7-7-7-77-7-l

------------------Derek-----------------------------------------------------------------------l
-5-5-5-55-5-7-7-7-77-7-9-9-9-99-9-9-9-9-----------5-5-5-55-5-7-7-7-77-7-2-2-2-22-2-9-9-9-99-9-l
-3-3-3-33-3-5-5-5-55-5-7-7-7-77-7-7-7-7/19-17-15--3-3-3-33-3-5-5-5-55-5-0-0-0-00-0-7-7-7-77-7-l

Course x2
------------------Beau--------------------------------------------------------------------l
-3-3-3-33-3-5-5-5-55-5-7-7-7-77-7-7-7-7-77-7--3-3-3-33-3-5-5-5-55-5-0-0-0-00-0-7-7-7-77-7-l
-3-3-3-33-3-5-5-5-55-5-7-7-7-77-7-7-7-7-77-7--3-3-3-33-3-5-5-5-55-5-0-0-0-00-0-7-7-7-77-7-l

-3-3-3-33-3-5-5-5-55-5--------------------------3-3-3-33-3-----------------------7-7-7-77-7-l
-----------------Derek-7-7-7-77-7-7-7-7--------------------5-5-5-55-5-----------------------l
-3-3-3-33-3-5-5-5-55-5-7-7-7-77-7-7-7-7/191919--3-3-3-33-3-5-5-5-55-5-0-0-0-00-0-7-7-7-77-7-l
-3-3-3-33-3-5-5-5-55-5-7-7-7-77-7-7-7-7/191919--3-3-3-33-3-5-5-5-55-5-0-0-0-00-0-7-7-7-77-7-l

Interlude 
------------------------------------x4-----------l
------------------Beau---------------------------l
-------------------------------------------------l
-------------------------------------------------l
-3-5-3-3-5-3-3-5-3-3-5-3-7-9-7-7-9-7-7-9-7-7-9-7-l
-3-5-3-3-5-3-3-5-3-3-5-3-7-9-7-7-9-7-7-9-7-7-9-7-l

------------------Derek--------------------------------------------------------------------l
-------------------17----------------------21----------------------21----------------------l
-5~-7~-9~-17----------17-5~-7~-9~-19----------19-5~-7~-9~-21----------21-5~-7~-9~-22222222-l
-3~-5~-7~----15-15-------3~-5~-7~----17-17-------3~-5~-7~----19-19-------3~-5~-7~-00000000-l

Course x2
------------------Beau--------------------------------------------------------------------l
-3-3-3-33-3-5-5-5-55-5-7-7-7-77-7-7-7-7-77-7--3-3-3-33-3-5-5-5-55-5-0-0-0-00-0-7-7-7-77-7-l
-3-3-3-33-3-5-5-5-55-5-7-7-7-77-7-7-7-7-77-7--3-3-3-33-3-5-5-5-55-5-0-0-0-00-0-7-7-7-77-7-l

-3-3-3-33-3-5-5-5-55-5--------------------------3-3-3-33-3-----------------------7-7-7-77-7-l
-----------------Derek-7-7-7-77-7-7-7-7--------------------5-5-5-55-5-----------------------l
-3-3-3-33-3-5-5-5-55-5-7-7-7-77-7-7-7-7/191919--3-3-3-33-3-5-5-5-55-5-0-0-0-00-0-7-7-7-77-7-l
-3-3-3-33-3-5-5-5-55-5-7-7-7-77-7-7-7-7/191919--3-3-3-33-3-5-5-5-55-5-0-0-0-00-0-7-7-7-77-7-l

Solo (Everyone goes silent except Derek)                                             Drums Build
----------------------:----------------------:--------------------------------------------------------l
----------------------:-Bass comes in--------:--------------------------------------------------------l
----------------------:----------------------:--------------------------------------------------------l
----------------------:----------------------:-------------------------19-----------------------------l
-15~-17~-19~----19----:-15~-17~-19~----19----:-15~-17~-19~----19----------19-15~-17~-0000000077777777-l
-15~-17~-19~-19----19-:-15~-17~-19~-19----19-:-15~-17~-19~-19----19-19-------15~-17~-0000000077777777-l
pm                                                                                   ................

Course (Everyone comes back in) x2
------------------Beau--------------------------------------------------------------------l
-3-3-3-33-3-5-5-5-55-5-7-7-7-77-7-7-7-7-77-7--3-3-3-33-3-5-5-5-55-5-0-0-0-00-0-7-7-7-77-7-l
-3-3-3-33-3-5-5-5-55-5-7-7-7-77-7-7-7-7-77-7--3-3-3-33-3-5-5-5-55-5-0-0-0-00-0-7-7-7-77-7-l

-3-3-3-33-3-5-5-5-55-5--------------------------3-3-3-33-3-----------------------7-7-7-77-7-l
-----------------Derek-7-7-7-77-7-7-7-7--------------------5-5-5-55-5-----------------------l
-3-3-3-33-3-5-5-5-55-5-7-7-7-77-7-7-7-7/191919--3-3-3-33-3-5-5-5-55-5-0-0-0-00-0-7-7-7-77-7-l
-3-3-3-33-3-5-5-5-55-5-7-7-7-77-7-7-7-7/191919--3-3-3-33-3-5-5-5-55-5-0-0-0-00-0-7-7-7-77-7-l

Outro
--------------------l
--------------------l
--------------------l
--------------------l
-3~-5~-7~--3~-5~-7~-l
-3~-5~-7~--3~-5~-7~-l

-Bass Outro





Comments


Popular Unsigned tabs & chords
1-11 Bass Tabs
Duxsik - Flower Childrens Children Bass Tabs
Mockingbird- The Fence Bass Tabs
Nmp - Why Did I Wait 1 Bass Tabs
Sound Clinic - Funk Number Bass Tabs
Abyss. - Omega White Tabs
Anti-Librariarn - Sausage Book Factory Tabs
Dominant Chopsticks- Smile Tabs
Insyte-R+R Tabs
Kudrna-Time Tabs


Song lyrics



↑ Back to top | Tablatures and chords are parodies/interpretations of the original songs. You may use it for private study, scholarship, research or language learning purposes only
© 2014 AZChords.com Contact us | Privacy policy | DMCA | Add/correct tabs | Request tabs | Top 50 tabs