» » »

Aphid - Hate And Compassion Tabs (ver.1)

Artists:  A B C D E F G H I J K L M N O P Q R S T U V W X Y Z # 

Aphid - Hate And Compassion Tabs (ver.1)

Unsigned
Rating:
0/5 (0 votes)

Hard to play? Try these video lessons and learn fast.
                Aphid
"Hate And Compassion"
taken from '4 ways out'-the Kerry Bands cd

tuning: E A D G B E

/ = slide
PM= palm mute
h = hammer on
p = pull off
~ = vibrato
b = bend
r = release
* = harmonic
x = mute
. = pick slide

clean riff:
E------------------------------------
B------------------------------------
G------------------------------------
D----------------------------/3\-----
A----7--7----7--7-----8---10--7-----7
E-5----5--8----8--10----10---8-8-7---

riff #1:
E----------------------------------
B----------------------------------
G----------------------------------
D----------------------------------
A-2--32--3532----------------2~~~~-
E-0--10--1310----131013101310------

riff #2:
E---------------------------------
B---------------------------------
G---------------------------------
D---------------------------------
A-----5-------5-------5-----5-4-3-
E-00003-0000003-0000003-00003-2-1-

riff #3:
E----------------------------------------------------------------------
B----------------------------------------------------------------------
G----------------------------------------------------------------------
D----------------------------------------------------------------------
A-2--------------------------------------------------------------------
E-0--------------------------------------------------------------------
            
Hard to play? Try these video lessons and learn fast. | Correct




comments powered by Disqus
↑ Back to top | Tablatures and chords are parodies/interpretations of the original songs. You may use it for private study, scholarship, research or language learning purposes only