» » »

Apathy - Gone With A Wound Bass

Artists:  A B C D E F G H I J K L M N O P Q R S T U V W X Y Z # 

Apathy - Gone With A Wound Bass

(ver. 1)
Unsigned Tabs
 Rating:
4/5 (4 votes)
    Apathy - Gone With A Wound lessons Tabs too difficult? Try these video lessons and learn fast
                ------------------------------------
------------------------------------
---------------------5-5-5-5-5-5----
----0-0--5--0-5-0-0----------------- verse 4x

-----------------------------------
-----------------------------------
-----------6-7------5-4-3-2-2-0-0--
------7-6------7-6----------------- chorus 3x

----------------------------------
----------------------------------
----------------------------------
----0-0--5--0-5-7-7-7-7-7---------  play thiis part gor the rest of the song.

   this is a pretty cool song me and my band made up its easy and sounds good.
            
Submit corrections

↑ Back to top | Unsigned Bass for Apathy - Gone With A Wound. Lyrics for acoustic guitar and electric guitar. Tablatures and chords are parodies/interpretations of the original songs. You may use it for private study, scholarship, research or language learning purposes only