>
 >
Antisocial Anarchist Society - Sarah

Antisocial Anarchist Society - Sarah Bass Tabs

Unsigned - Antisocial Anarchist Society - Sarah chords, tabs, tablatures, lyrics

Guitar lessons | Add/correct | Request | Top 50 tabs Artists:  A B C D E F G H I J K L M N O P Q R S T U V W X Y Z 0-9

Antisocial Anarchist Society - Sarah Bass Tabs – Unsigned

CD, Sheet music, Poster

Do you like Antisocial Anarchist Society - Sarah? Share with your friends now
Bass Tabs
this is a well good band that hardly anyone has heard of.  this is one of their best songs, it has a very cool bass line

Intro/Break
G----------------------
D-----------------2-2--
A---------2h3p2h3------
E--3-3-3-3-------------

VERSE
G---------------------------------
D---------------------------------
A-3-3-3-3-0-0-0-0-2-2-2-2-2-2-2-2-
E---------------------------------

BRIDGE
G---------------------------------
D---------------------------------
A-5-5-5-5-4-4-4-4-3-3-3-3-2-2-2-2-
E---------------------------------

CHORUS
G---------------------------------
D-2-2-2-2-------------------------
A---------2-2-2-2-----------------
E-----------------2-2-2-2-2-2-2-2-
 
ORDER

Intro/Break x4
Verse x1
Intro/Break x2
Verse x3
Intro/Break x1
Chorus x1
Intro/Break x2
Verse x4
Chorus x2
Intro/Break x 2
Verse x4





Comments


Popular Unsigned tabs & chords
4day Enema - Poppin Chips Bass Tabs
Chain - Show Me Bass Tabs
Exile - Lifes Too Short Bass Tabs
Rift- Splintered Tears Bass Tabs
Sixdaystoyesterday - Eulogy Bass Tabs
Yuk Foo - March Of The Chickens Bass Tabs
Blues Tabs
Four Fingers And A Toe - Finally Tabs
Just A Number - Creative Tabs
Kudrna-Loser With A Dream Tabs


Song lyrics



↑ Back to top | Tablatures and chords are parodies/interpretations of the original songs. You may use it for private study, scholarship, research or language learning purposes only
© 2014 AZChords.com Contact us | Privacy policy | DMCA | Add/correct tabs | Request tabs | Top 50 tabs