» » »

Unsigned, Anti-Librariarn - Sausage Book Factory Tabs (ver.1)

Artists:  A B C D E F G H I J K L M N O P Q R S T U V W X Y Z # 

Anti-Librariarn - Sausage Book Factory Tabs (ver.1)

Unsigned Tabs
 Rating:
4/5 (4 votes)
Anti-Librariarn - Sausage Book Factory lessons Tabs too difficult? Try these video lessons and learn fast
1
                Tuning: D A D D A D

This song rules!

INTRO
GUITAR 1 & 2:
D------------------------------------------
A------------------------------------------
D------------------------------------------
D------8-----7----------2------------6-6-6-
A---0--8--9--7-8---7----2---3----0---6-6-6-
D---0-----9----0---7----0---3----0---6-6-6-

VERSE:
GUITAR 1:
D-------------------------
A-------------------------
D-------------------------
D--x--x-x--x-x-x--x-x-x-x-
A--0--8-9--7-6-0--6-6-6-6-
D--0--8-9--7-6-0--6-6-6-6-

GUITAR 2:
D-----8-8-8b--8h9--10po9po7po0-
A--0---------------------------
D------------------------------
D------------------------------
A------------------------------
D------------------------------
            
Submit corrections

comments powered by Disqus
↑ Back to top | Unsigned Tabs for Anti-Librariarn - Sausage Book Factory. Lyrics for acoustic guitar and electric guitar. 1 Tablatures and chords are parodies/interpretations of the original songs. You may use it for private study, scholarship, research or language learning purposes only