» » »

Another Day - Leaish Bass tabs (ver.1)

Artists:  A B C D E F G H I J K L M N O P Q R S T U V W X Y Z # 

Another Day - Leaish Bass tabs (ver.1)

Unsigned
Rating:
0/5 (0 votes)

Hard to play? Try these video lessons and learn fast.
                Intro x2
G|-------------------- 5 5 3h4   7-----|
D|-----------5 5 3h4---------------7--| 
A|  5 5 3h4----------------------- ---7|
E|---------------------------------------|



Chorus x 4
G|-------------------------------|
D|  5->    ---------5->   ------| 
A|--------7->      -------7 5 3|
E|-------------------------------|



Verse x3
G|--------------------5h7---------------5h7|
D|-----------5 5 5h7--------------5 5----|  
A|5 5 5 5h7----------------5 5 5-------| 
E|--------------------------------------|



Solo part 1 – x2
G|  5h7 3  5h7 3---------5h7 3  5h7 3---|
D|-----------------5 3--------------------5 7|  
A|--------------------------------------|
E|---------------------------------------|

part 2 – x2
G|  3h5--------3h5--------3h5 7-------3h5 3|
D|-------3 3 3-----5 5 5--------3 5 3--------|
A|----------------------------------------------|
E|----------------------------------------------| 

and    
G|-------- 3 3 3 5 6 5 3   7 7 7  5h7 3---------5 3|
D|  3 5 3----------------------------------3 5-----|
A|--------------------------------------------------|
E|--------------------------------------------------|
            
Hard to play? Try these video lessons and learn fast. | Correct




comments powered by Disqus
↑ Back to top | Tablatures and chords are parodies/interpretations of the original songs. You may use it for private study, scholarship, research or language learning purposes only