» » »

Unsigned, Another Boring Memoir- Dinner Skip...... Tabs (ver.1)

Artists:  A B C D E F G H I J K L M N O P Q R S T U V W X Y Z # 

Another Boring Memoir- Dinner Skip...... Tabs (ver.1)

Unsigned Tabs
Rating:
0/5 (0 votes)
Another Boring Memoir- Dinner Skip...... lessons Tabs too difficult? Try these video lessons and learn fast
                
Sorry, if the rhythm is a bit off, but its an easy song so you should get it.


Guitar 1 intro

e----------------------------------------------------------------
B----------------------------------------------------------------
G----------------------------------------------------------------
D------------6---------------6---------------6--------------6---- 
A--------7-------7-------7-------7-------7-------7-------7-----7-
E----0---------------0---------------0---------------0-----------

e----------------------------------------------------------------
B----------------------------------------------------------------
G----------------------------------------------------------------
D------------6---------------6---------------6--------------6---- 
A--------7-------7-------7-------7-------7-------7-------7-----7-
E----5---------------5---------------5---------------5-----------

e----------------------------------------------------------------
B----------------------------------------------------------------
G----------------------------------------------------------------
D------------6---------------6---------------6--------------6---- 
A--------7-------7-------7-------7-------7-------7-------7-----7-
E----4---------------4---------------4---------------4-----------

e----------------------------------------------------------------
B----------------------------------------------------------------
G----------------------------------------------------------------
D------------9---------------9---------------9--------------9---- 
A--------7-------7-------7-------7-------7-------7-------7-----7-
E----5---------------5---------------5---------------5-----------

Intro x 3

Guitar 2 intro
On second loop of guitar one:

e----------------------------------------------------------------
B----------------------------------------------------------------
G----------------------------------------------------------------
D----2---------------7---------------6---------------7-----------
A----2---------------7---------------6---------------7-----------
E----0---------------5---------------4---------------5-----------

Intro x 2

Chorus guitar 1 (x2)

e----------------------------------------------------------------
B----------------------------------------------------------------
G----------------------------------------------------------------
D----66666666--66666666--66666666--9999999--xxxx-----------------
A----77777777--77777777--77777777--7777777--xxxx-----------------
E----00000000--55555555--44444444--5555555--xxxx-----------------

Chorus guitar 2 (x2)

e----------------------------------------------------------------
B----------------------------------------------------------------
G----------------------------------------------------------------
D----2222222222222222-7777777777777777-6666666666666666----------
A----2222222222222222-7777777777777777-6666666666666666----------
E----0000000000000000-5555555555555555-4444444444444444----------

G----------------------------------------------------------------
D----7777777777777777--------------------------------------------
A----7777777777777777--------------------------------------------
E----5555555555555555--------------------------------------------

Verse same as intro x4

Chorus

Bass breakdown

e----------------------------------------------------------------
B----------------------------------------------------------------
G----------------------------------------------------------------
D----------------------------------------------------------------
A----------------------------------------------------------------
E----00000000--55555555--44444444--55555555----------------------

Chorus x 2
            

comments powered by Disqus
↑ Back to top | Unsigned Tabs for Another Boring Memoir- Dinner Skip....... Lyrics for acoustic guitar and electric guitar. Tablatures and chords are parodies/interpretations of the original songs. You may use it for private study, scholarship, research or language learning purposes only