» » »

Unsigned, Animosity - Brucies Riffs Tabs (ver.1)

Artists:  A B C D E F G H I J K L M N O P Q R S T U V W X Y Z # 

Animosity - Brucies Riffs Tabs (ver.1)

Unsigned Tabs
Rating:
0/5 (0 votes)
Animosity - Brucies Riffs lessons Tabs too difficult? Try these video lessons and learn fast
                standard tuning        My riff # 1

e|-----------------
b|-----------------       
g|-----------------        repeat till i come up with a chorus haha
d|---7/9--9--------
a|---5/7--7-9-8-7-5
E|----------7-6-5-3


e|------------------------------
b|------------------------------
g|------------------------------     <------drop D
d|------------------------------
a|-2-0-0-3-0-0-2-0-0-3-0-0-5-3-0
D|-2-0-0-3-0-0-2-0-0-3-0-0-5-3-0


e|----------------------------------------------
b|----------------------------------------------
g|----0-------0-------0--------11---------0-----  repeat till whenever
d|---9-9-----9-9-----9-9------12-12------9-9----
a|--7---7-7-7---7-7-7---7-7--9-----9--9-7---7-7-
E|-0-----0-8-----8-0-----0-10-------10-0-----0-0


    next are just chords.....kapo on 4th fret

    
     Em7   Cadd9  G  D    make up a strumming pattern  



                 thats all for now      (>'.')>
            

comments powered by Disqus
↑ Back to top | Unsigned Tabs for Animosity - Brucies Riffs. Lyrics for acoustic guitar and electric guitar. Tablatures and chords are parodies/interpretations of the original songs. You may use it for private study, scholarship, research or language learning purposes only