» » »

Anachronism- Methadone Tabs (ver.1)

Artists:  A B C D E F G H I J K L M N O P Q R S T U V W X Y Z # 

Anachronism- Methadone Tabs (ver.1)

Unsigned
Rating:
0/5 (0 votes)

Tabs too difficult? Try these video lessons and learn fast.
                
ACOUSTIC RIFF- VERSE:
  Dm               G
e|---1-------1-------3-------3--------|
B|-----3-------3-------3-------3------|
G|-------2-------2-------0-------0----|
D|-0-------0--------------------------|
A|------------------------------------|
E|-----------------3-------3----------| X4

ELECTRIC RIFF- VERSE:
   Dm        G
e|--------------------------|
B|--------------------------|
G|--7~-7/10\7--------10\7~--|
D|------------5~-5/7--------|
A|--------------------------|
E|--------------------------|X4

NOTE: THE ELECTRIC VERSE IS PLAYED WITH A VIOLIN EFFECT, WITH NO DISTORTION.
      THE PEDAL USED WAS A ZOOM 606, ON SETTING F3, AND DRIVE SET FOR CLEAN.


ACOUSTIC CHORUS:
 
   D            G         
e|-2-22-2-2-22-23-3-33-33-3-|
B|-3-33-3-3-33-33-3-33-33-3-|
G|-2-22-2-2-22-20-0-00-00-0-|
D|-0-00-0-0-00-00-0-00-00-0-|
A|--------------2-2-22-22-2-|
E|--------------3-3-33-33-3-|X4

ELECTRIC CHORUS:
SAME AS VERSE.

VERSE 

CHORUS

ACOUSTIC FADES OUT, AND ELECTRIC KEEPS PLAYING FOR 2 MORE BARS, THEN FADES OUT.

THANKS FOR READING THIS TAB, COS WE NEED ALL THE PUBLICITY WE CAN GET, AND WE
GOT OUR FIRST GIG IN MAY!

	COOK.
            
Tabs too difficult? Try these video lessons and learn fast.




comments powered by Disqus
↑ Back to top | Tablatures and chords are parodies/interpretations of the original songs. You may use it for private study, scholarship, research or language learning purposes only