» » »

Unsigned, All U Can Eat - Meat Pie Tabs (ver.1)

Artists:  A B C D E F G H I J K L M N O P Q R S T U V W X Y Z # 

All U Can Eat - Meat Pie Tabs (ver.1)

Unsigned Tabs
 Rating:
4/5 (4 votes)
All U Can Eat - Meat Pie lessons Tabs too difficult? Try these video lessons and learn fast
                Tuning: (Low to high) D A D G B E



1st Intro

X2
E|-------------------------------------------------------------------
B|-------------------------------------------------------------------
G|---7--7--7--7-7--7-7-7--8--8--8--8-8--8-8-8--5--5--5--5-5--5-5-5---
D|---7--7--7--7-7--7-7-7--8--8--8--8-8--8-8-8--5--5--5--5-5--5-5-5---
A|---5--5--5--5-5--5-5-5--6--6--6--6-6--6-6-6--3--3--3--3-3--3-3-3---
D|-------------------------------------------------------------------

E|-------------------------------------------------------------------
B|-------------------------------------------------------------------
G|-------------------------------------------------------------------
D|---6--6--6--6-6--6-6-6---------------------------------------------
A|---6--6--6--6-6--6-6-6---------------------------------------------
D|---6--6--6--6-6--6-6-6---------------------------------------------


2nd Intro

X4
E|-------------------------------------------------------------------
B|-------------------------------------------------------------------
G|-------------------------------------------------------------------
D|---0--7-8--0--10-8-7--0--7-8--0--10-12-13--0--7-8--0--10-8-7-------
A|---0--7-8--0--10-8-7--0--7-8--0--10-12-13--0--7-8--0--10-8-7-------
D|---0--7-8--0--10-8-7--0--7-8--0--10-12-13--0--7-8--0--10-8-7-------

E|-------------------------------------------------------------------
B|-------------------------------------------------------------------
G|-------------------------------------------------------------------
D|---0--7-8-5-7-3-5--------------------------------------------------
A|---0--7-8-5-7-3-5--------------------------------------------------
D|---0--7-8-5-7-3-5--------------------------------------------------


Verse 
Part 1    Palm Muted

X2
E|-------------------------------------------------------------------
B|-------------------------------------------------------------------
G|-------------------------------------------------------------------
D|-------------------------------------------------------------------
A|-------------------------------------------------------------------
D|---0--7-8--0--10-8-7--0--7-8--0--10-12-13--0--7-8--0--10-8-7-------

E|-------------------------------------------------------------------
B|-------------------------------------------------------------------
G|-------------------------------------------------------------------
D|-------------------------------------------------------------------
A|-------------------------------------------------------------------
D|---0--7-8-5-7-3-5--------------------------------------------------



Verse 
Part 2

X2
E|-------------------------------------------------------------------
B|-------------------------------------------------------------------
G|--0---7-8-7-8--0--10-8---0---7-8-7-8--0--10-12---0---7-8-7-8—0—10-8            D|-------------------------------------------------------------------
A|-------------------------------------------------------------------
D|-------------------------------------------------------------------

E|-------------------------------------------------------------------
B|-------------------------------------------------------------------
G|--0---7-8-7-8--0-7-5-3---------------------------------------------
D|-------------------------------------------------------------------
A|-------------------------------------------------------------------
D|-------------------------------------------------------------------


Pre Chorus
X2
E|-------------------------------------------------------------------
B|-------------------------------------------------------------------
G|------7-8--------7-8-7------7-8----7---5---3-----------------------
D|--0-0-7-8--0-0-0-7-8-7--0-0-7-8--0-7-0-5-0-3-----------------------
A|--0-0-5-6--0-0-0-5-6-5--0-0-5-6--0-5-0-3-0-1-----------------------
D|--0-0------0-0-0--------0-0------0---0---0-------------------------

Chorus

X2
E|-------------------------------------------------------------------
B|-------------------------------------------------------------------
G|-------------------------------------------------------------------
D|---0--7-8--0--10-8-7--0--7-8--0--10-12-13--0--7-8--0--10-8-7-------
A|---0--7-8--0--10-8-7--0--7-8--0--10-12-13--0--7-8--0--10-8-7-------
D|---0--7-8--0--10-8-7--0--7-8--0--10-12-13--0--7-8--0--10-8-7-------




E|-------------------------------------------------------------------
B|-------------------------------------------------------------------
G|-------------------------------------------------------------------
D|---0--7-8-5-7-3-5--------------------------------------------------
A|---0--7-8-5-7-3-5--------------------------------------------------
D|---0--7-8-5-7-3-5--------------------------------------------------


Breakdown

X2
E|-------------------------------------------------------------------
B|-------------------------------------------------------------------
G|-------------------------------------------------------------------
D|---7--7--7--7--7-7-7-7---8--8--8--8--8-8-8-8---5--5--5—-5-5-5-5----
A|---7--7--7--7--7-7-7-7---8--8--8--8--8-8-8-8---5--5--5—-5-5-5-5----
D|---7--7--7--7--7-7-7-7---8--8--8--8--8-8-8-8---5--5--5—-5-5-5-5----

E|-------------------------------------------------------------------
B|-------------------------------------------------------------------
G|-------------------------------------------------------------------
D|---1--1--1--1--1-1-1-1---------------------------------------------
A|---1--1--1--1--1-1-1-1---------------------------------------------
D|---1--1--1--1--1-1-1-1---------------------------------------------


Build Up

X2
E|-------------------------------------------------------------------
B|-------------------------------------------------------------------
G|-------------------------------------------------------------------
D|---7---7--7--7---8---8--8--8---7---7--7--7---5-5--3-3--2-2--5-5----
A|---7---7--7--7---8---8--8--8---7---7--7--7---5-5--3-3--2-2--5-5----
D|---7---7--7--7---8---8--8--8---7---7--7--7---5-5--3-3--2-2--5-5----


End

E|-------------------------------------------------------------------
B|-------------------------------------------------------------------
G|-------------------------------------------------------------------
D|---0--0-------0--0--0------------0--0-------0--0--0----------------
A|---0--0--5-6--0--0--0-5h6h5-8-6--0--0--5-6--0--0--0-5h6h5-8-6------
D|---0--0-------0--0--0------------0--0-------0--0--0----------------

E|-------------------------------------------------------------------
B|-------------------------------------------------------------------
G|-------------------------------------------------------------------
D|---0--0-------0--0--0------------0--0-------0--0-------------------
A|---0--0--5-6--0--0--0-5h6h5-8-6--0--0--5-6--0--0-------------------
D|---0--0-------0--0--0------------0--0-------0--0-------------------


SONG ORDER

1st Intro X2
2nd Intro X4
Verse P1 X2
Verse P2 X2
Pre Chorus X2
Chorus X2
Verse P1 X2
Verse P2 X2
Pre Chorus X2
Chorus X2
Breakdown X2
Build Up X2
Pre Chorus X2
Chorus X2
End
            
Submit corrections

comments powered by Disqus
↑ Back to top | Unsigned Tabs for All U Can Eat - Meat Pie. Lyrics for acoustic guitar and electric guitar. Tablatures and chords are parodies/interpretations of the original songs. You may use it for private study, scholarship, research or language learning purposes only