» » »

A - Going Down Bass tabs (ver.1)

Artists:  A B C D E F G H I J K L M N O P Q R S T U V W X Y Z # 

A - Going Down Bass tabs (ver.1)

Unsigned
Rating:
0/5 (0 votes)

Hard to play? Try these video lessons and learn fast.
                Intro
G|----------------|----------------|----------------|----------------|
D|5-5-5-5-5-5-5-5-|----------------|----------------|----------------|
A|----------------|7-7-7-7-7-7-7-7-|----------------|----------------|
E|----------------|----------------|7-7-7-7-7-7-7-7-|7-7-7-7-7-7-7-7-|

G|----------------|----------------|----------------|
D|----------------|----------------|----------------|
A|----------------|0-0-0-0-0-0-0-0-|7-7-7-7-7-7-7-7-|
E|8-8-8-8-8-8-8-8-|----------------|----------------|

Verse (2x)
G|----------------|----------------|----------------|----------------|
D|5-5-5-5-5-5-5-5-|----------------|----------------|----------------|
A|----------------|7-7-7-7-7-7-7-7-|----------------|----------------|
E|----------------|----------------|7-7-7-7-7-7-7-7-|7-7-7-7-7-7-7-7-|

G|----------------|----------------|----------------|
D|----------------|----------------|----------------|
A|----------------|0-0-0-0-0-0-0-0-|7-7-7-7-7-7-7-7-|
E|8-8-8-8-8-8-8-8-|----------------|----------------|


Chorus
G|----------------|----------------|----------------|----------------|
D|7-7-7-7-7-7-7-7-|9-9-9-9-9-9-9-9x|9-9-9-9-9-9-9-9-|----------------|
A|----------------|----------------|----------------|7-7-7-7-7-7—7-7-|
E|----------------|----------------|----------------|----------------|

G|----------------|----------------|----------------|----------------|
D|7-7-7-7-7-7-7-7-|9-9-9-9-9-9-9-9-|----------------|----------------|
A|----------------|----------------|----------------|7-7-7-7-7-7-7-7-|
E|----------------|----------------|7-7-7-7-7-7-7-7-|----------------|

Verse (2x)

Chorus

Interlude
G|------------------------|----------------|----------------|----------------|
D|------------------------|----------------|----------------|----------------|
A|------------------------|----------------|----------------|----------------|
E|10-10-10-10-10-10-10-10-|8-8-8-8-8-8-8-8-|5-5-5-5-5-5-5-5-|5-5-5-5-5-5-5-5-|

G|-----------------|----------------|
D|-----------------|----------------|
A|-----------------|----------------|
E|6-6-6-6-6-6-6-6-6|8-8-8-8-8-8-8-8-|

G|------------------------|----------------|----------------|----------------|
D|------------------------|----------------|----------------|----------------|
A|------------------------|----------------|----------------|----------------|
E|10-10-10-10-10-10-10-10-|8-8-8-8-8-8-8-8-|5-5-5-5-5-5-5-5-|5-5-5-5-5-5-5-5-|

G|-----------------|----------------|-----------------|
D|-----------------|----------------|-----------------|
A|-----------------|----------------|-----------------|
E|6-6-6-6-6-6-6-6-6|8-8-8-8-8-8-8-8-|/8-8-8-8-8-8-8-8-|

Verse (2x)

Chorus

Verse (3x)

Outro
G|----------------|----------------|----------------|----------------|
D|5-5-5-5-5-5-5-5-|----------------|----------------|----------------|
A|----------------|7-7-7-7-7-7-7-7-|----------------|----------------|
E|----------------|----------------|7-7-7-7-7-7-7-7-|7-7-7-7-7-7-7-7-|

G|----------------|
D|----------------|
A|------0--0--7---|
E|8---8---------0-|

It’s really easy.
            
Hard to play? Try these video lessons and learn fast. | Correct




comments powered by Disqus
↑ Back to top | Tablatures and chords are parodies/interpretations of the original songs. You may use it for private study, scholarship, research or language learning purposes only