>
 >
Afterthought - No Noise

Afterthought - No Noise Guitar Tabs

Unsigned - Afterthought - No Noise chords, tabs, tablatures, lyrics

Guitar lessons | Add/correct | Request | Top 50 tabs Artists:  A B C D E F G H I J K L M N O P Q R S T U V W X Y Z 0-9

Afterthought - No Noise Guitar Tabs – Unsigned

CD, Sheet music, Poster

Do you like Afterthought - No Noise? Share with your friends now
Tabs
INTRO
E----------------------------------------------------------------------------
B----------------------------------------------------------------------------
G---------------------------------------------------------------------------- x3
D----------------------------------------------------------------------------
A-3𦠫-----------------------------------------------------------------
G--------------4𦴘---3𦠫𧛲𧛲𧛲𧛲---

Then
E------------------------------
B------------------------------
G------------------------------
D------------------------------
A-3𦠫-------------------
G--------------4𦴘3-

E----------------------------------------------------
B----------------------------------------------------
G5-5-5------------------------------------------
D5-5-56-6-64-4-48-8-8-8-8-8-8-8- x 3
A3-3-36-6-64-4-48-8-8-8-6-8-8-8-
G------------4-4-4---2-2-26-6-6-6-6-6-6-6-

Then
E----------------------
B----------------------
G-5-5-5--------------
D-5-5-5--6-6-65-
A-3-3-3--6-6-65-
G---------4-4-4---3-

CHORUS
E----------------------------------------------------
B----------------------------------------------------
G5-5-5------------------------------------------
D5-5-56-6-64-4-48-8-8-8-8-8-8-8-
A3-3-36-6-64-4-48-8-8-8-6-8-8-8-
G------------4-4-4---2-2-26-6-6-6-6-6-6-6-





Comments


Popular Unsigned tabs & chords
Aaron Doyle - I Dislike Frank Bass Tabs
Hellhound - Dreaming Far Away Bass Tabs
Oh When The Saints Go Marching In Bass Tabs
Super Mario Theme & Underground Theme Bass Tabs
The Gremlins - Quatro Stagioni Bass Tabs
The Rooftop Divers - Rockin Through Bass Tabs
Unendingdreamz - Lost Bass Tabs
Animosity - Brucies Riffs Tabs
Kitts - Doobiewickitywahwah Tabs
Less Than Nothing - Show & Tell Tabs


Song lyrics



↑ Back to top | Tablatures and chords are parodies/interpretations of the original songs. You may use it for private study, scholarship, research or language learning purposes only
© 2014 AZChords.com Contact us | Privacy policy | DMCA | Add/correct tabs | Request tabs | Top 50 tabs