» » »

Unsigned, Afterthought - No Noise Tabs (ver.1)

Artists:  A B C D E F G H I J K L M N O P Q R S T U V W X Y Z # 

Afterthought - No Noise Tabs (ver.1)

Unsigned Tabs
Rating:
0/5 (0 votes)
Afterthought - No Noise lessons Tabs too difficult? Try these video lessons and learn fast
                INTRO
E----------------------------------------------------------------------------
B----------------------------------------------------------------------------
G---------------------------------------------------------------------------- x3
D----------------------------------------------------------------------------
A-3—3—3-----------------------------------------------------------------
G--------------4—4—4---3—3—3—6—6—6—6—6—6—6—6---

Then
E------------------------------
B------------------------------
G------------------------------
D------------------------------
A-3—3—3-------------------
G--------------4—4—4—3-

E----------------------------------------------------
B----------------------------------------------------
G—5-5-5------------------------------------------
D—5-5-5—6-6-6—4-4-4—8-8-8-8-8-8-8-8- x 3
A—3-3-3—6-6-6—4-4-4—8-8-8-8-6-8-8-8-
G------------4-4-4---2-2-2—6-6-6-6-6-6-6-6-

Then
E----------------------
B----------------------
G-5-5-5--------------
D-5-5-5--6-6-6—5-
A-3-3-3--6-6-6—5-
G---------4-4-4---3-

CHORUS
E----------------------------------------------------
B----------------------------------------------------
G—5-5-5------------------------------------------
D—5-5-5—6-6-6—4-4-4—8-8-8-8-8-8-8-8-
A—3-3-3—6-6-6—4-4-4—8-8-8-8-6-8-8-8-
G------------4-4-4---2-2-2—6-6-6-6-6-6-6-6-
            
Submit corrections

comments powered by Disqus
↑ Back to top | Unsigned Tabs for Afterthought - No Noise. Lyrics for acoustic guitar and electric guitar. Tablatures and chords are parodies/interpretations of the original songs. You may use it for private study, scholarship, research or language learning purposes only