>
 >
Afterthought - Lost Without Us

Afterthought - Lost Without Us Guitar Tabs

Unsigned - Afterthought - Lost Without Us chords, tabs, tablatures, lyrics

Guitar lessons | Add/correct | Request | Top 50 tabs Artists:  A B C D E F G H I J K L M N O P Q R S T U V W X Y Z 0-9

Afterthought - Lost Without Us Guitar Tabs – Unsigned

CD, Sheet music, Poster

Do you like Afterthought - Lost Without Us? Share with your friends now
Tabs
INTRO
E----------------------------
A---------------------------
D-22-------22-------- 
G-------33--------22-
B----------------------------
E----------------------------

Then
E-----------------------------------------------------------
A-----------------------------------------------------------
D-----------------------------------------------------------
G-222-----------222222222-(open string on 2nd time) x2 
B-----------333--------------------------------------
E------------------------------------------------------------

VERSES

E-7-7-7-7-7-7-7-7-7-------------------------5-5 -5-5-5-5-5-5---3-3-3-3-3-3-3-3
A-9-9-9-9-9-9-9-9-9---5-5-5-5-5-5-5-57-7-7-7-7-7-7-7---5-5-5-5-5-5-5-5   x2
D-9-9-9-9-9-9-9-9-97-7-7-7-7-7-7-77-7-7-7-7-7-7-7---5-5-5-5-5-5-5-5
G--------------------------7-7-7-7-7-7-7-7-------------------------------------------
B----------------------------------------------------------------------------------------
E----------------------------------------------------------------------------------------

CHORUS
E-7-7-7-7-7-7-7-7-75-5-5-5-5-5-5-5--5-5-5-5-5-5-5-5--
A-9-9-9-9-9-9-9-9-93-3-3-3-3-3-3-3--7-7-7-7-7-7-7-75-5-5-5--7-7-7-7-
D-9-9-9-9-9-9-9-9-93-3-3-3-3-3-3-3--7-7-7-7-7-7-7-77-7-7-7--9-9-9-9- x4
G---------------------------------------------------------------------7-7-7-7--9-9-9-9-
B------------------------------------------------------------------------------------------
E------------------------------------------------------------------------------------------

OUTRO
E--------------------------------------
A-------------------------------------
D---------33----------220--
G-22----------22---------------
B--------------------------------------
E---------------------------------------

Sequence:
Intro
Verse
Chorus
Verse
Chorus 
Verse
Outro





Comments


Popular Unsigned tabs & chords
Slanted - Donny The Little Donkey Bass Tabs
Suicide Method - Psllo Sic Bass Tabs
The Accidents - Last Pick Bass Tabs
The Death Of Gwen Stacy-Songsonyourwall Bass Tabs
Xpadrehurtadox - Xcorazoncitox Bass Tabs
Deferred-A.C.T.F.F.K.C. Tabs
Fernands Band - Kill The Kkk Tabs
Full Nelson - Keep Your Distnce Tabs
Full Nelson - Not Content Tabs
G.P.C- One More Tabs


Song lyrics



↑ Back to top | Tablatures and chords are parodies/interpretations of the original songs. You may use it for private study, scholarship, research or language learning purposes only
© 2014 AZChords.com Contact us | Privacy policy | DMCA | Add/correct tabs | Request tabs | Top 50 tabs