» » »

Unsigned, Advanced - High Rock Tabs (ver.1)

Artists:  A B C D E F G H I J K L M N O P Q R S T U V W X Y Z # 

Advanced - High Rock Tabs (ver.1)

Unsigned Tabs
 Rating:
4/5 (4 votes)
Advanced - High Rock lessons Tabs too difficult? Try these video lessons and learn fast
                (Riff)
e  --12--h14--p12----------------------------------------------------------------
b  --------------------14--12------------------------------------------------------
g  ------------------------------14--12--b14 ^ 16 ^ 14--b14 ^ 16 ^ 14-------
d  -----------------------------------------------------------------------------14--    x4
a  ----------------------------------------------------------------------------------
e  ----------------------------------------------------------------------------------

e  --15--h17--p15----------------------------------------------------------------
b  --------------------17--15------------------------------------------------------
g  ------------------------------17--15--b17 ^ (19) ^ 17--b17 ^ (19) ^ 17--- 
d  ----------------------------------------------------------------------------17---    x2   
a  ----------------------------------------------------------------------------------
e  ----------------------------------------------------------------------------------

e  --12--h14--p12----------------------------------------------------------------
b  --------------------14--12------------------------------------------------------
g  ------------------------------14--12--b14 ^ (16) ^ 14--b14 ^ (16) ^ 14---
d  -----------------------------------------------------------------------------14--    x2
a  ----------------------------------------------------------------------------------
e  ----------------------------------------------------------------------------------

e  --15--h17--p15----------------------------------------------------------------
b  --------------------17--15------------------------------------------------------
g  ------------------------------17--15--b17 ^ (19) ^ 17--b17 ^ (19) ^ 17--- 
d  ----------------------------------------------------------------------------17---    x2   
a  ----------------------------------------------------------------------------------
e  ----------------------------------------------------------------------------------

e  --19--17---------------h19—p17----------------------------------------------------
b  ------------h19--p17----------------h19^^^^^----19—17--------------------------
g  -----------------------------------------------------------------19—p17—h19^^^^^
d  ------------------------------------------------------------------------------------------
a  ------------------------------------------------------------------------------------------
e  ------------------------------------------------------------------------------------------

e  ----------------------------------------------------------------------------------------------------
b  ----------------------------------------------------------------------------------------------------
g  --17—h19—b19 ^ (20) ^ 19—b19 ^ (20) ^ 19—b19 ^ (20) ^ 19—17-----------------
d  ------------------------------------------------------------------------------------17—h19^^^^
a  ----------------------------------------------------------------------------------------------------
e  ---------------------------------------------------------------------------------------------------
            
Submit corrections

comments powered by Disqus
↑ Back to top | Unsigned Tabs for Advanced - High Rock. Lyrics for acoustic guitar and electric guitar. Tablatures and chords are parodies/interpretations of the original songs. You may use it for private study, scholarship, research or language learning purposes only