» » »

Unsigned, A Division Of The New - You Have To Have Bass tabs (ver.1)

Artists:  A B C D E F G H I J K L M N O P Q R S T U V W X Y Z # 

A Division Of The New - You Have To Have Bass tabs (ver.1)

Unsigned Tabs
 Rating:
4/5 (4 votes)
A Division Of The New - You Have To Have lessons Tabs too difficult? Try these video lessons and learn fast
                Intro/Bridge/Part A

g-----------------------------------------------------------------------------------
d--------8-----6--------------------------------------------------------------------
a------6-----4----------------------------------------------------------------------
d----5-----3-----(5)----------------------------------------------------------------
                 (only play at end of song)          (Intro 4x/BRidge 8x)
Chorus/Part B

g-----------------------------------------------------------------------------------
d-----------------------------------------------------------------------------------
a-----------------3-3-331111----------------------------------------3-3-331111------
d----55--77--3333-------------55--77--3333-1-1-110000--55--77--3333-----------------

g-----------------------------------------------------------------------------------
d-----------------------------------------------------------------------------------
a-----------------------------------------------------------------------------------
d----55--77--3333-1-1-111111-0-0-000000---------------------------------------------

Part C

g-----------------------------------------------------------------------------------
d-----------------------------------------------------------------------------------
a-----------------------------------------------------------------------------------
d---(0-0-0-0-0-0-0-0-0-0-0-0-0-0-0-0-0-0-0-0-0-0-0-0-0-0-0-0-0-0-0-0-0-0-0-0-0-0)---
    (play while the lead plays for buckup melody)
            
Submit corrections

comments powered by Disqus
↑ Back to top | Unsigned Bass for A Division Of The New - You Have To Have. Lyrics for acoustic guitar and electric guitar. Tablatures and chords are parodies/interpretations of the original songs. You may use it for private study, scholarship, research or language learning purposes only