» » »

Addicted To Nothing - Hate Me #1 Tabs (ver.1)

Artists:  A B C D E F G H I J K L M N O P Q R S T U V W X Y Z # 

Addicted To Nothing - Hate Me #1 Tabs (ver.1)

Unsigned
Rating:
0/5 (0 votes)

Hard to play? Try these video lessons and learn fast.
                Tuning : Drop D (On The 7th Fret)

/ = Slide Upwards
\ = Slide Downwards
: = Palm Mute (When Underlining Tab)

||<>|<>|<>|<>|<>|<>|<>|<>|<>|<>|<>|<>|<>|<>|<>|<>|<>|<>|<>|<>|<>|<>|<>|<>|<>|<>|<>||

Introduction : Effects - Heavy Distortion & Palm Muting :

E||------------------||-----------------||-----------------||---------------------||
B||------------------||-----------------||-----------------||---------------------||
G||------------------||-----------------||-----------------||---------------------||
D||---2-2-2--0---0---||--2-2-2--0---0---||--2-2-2--0---0---||--2-2-2--0-----------||
A||---2-2-2--2---3---||--2-2-2--2---3---||--2-2-2--2---3---||--2-2-2--2---5-/-7---||
D||---0-0-0--0---2---||--0-0-0--0---2---||--0-0-0--0---2---||--0-0-0--0---3-/-5---||
  |:::::::::::::::::::::::::::{PALM MUTE}:::::::::::::::::::::::::::::|

E||------------------||-----------------||-----------------||---------------------||
B||------------------||-----------------||-----------------||---------------------||
G||------------------||-----------------||-----------------||---------------------||
D||---2-2-2--0---0---||--2-2-2--0---0---||--2-2-2--0---0---||--2-2-2--0-----------||
A||---2-2-2--2---3---||--2-2-2--2---3---||--2-2-2--2---3---||--2-2-2--2---5-/-7---||
D||---0-0-0--0---2---||--0-0-0--0---2---||--0-0-0--0---2---||--0-0-0--0---3-/-5---||
  |::::::::::::::::::::::::::::{PALM MUTE}:::::::::::::::::::::::::::::|

E||------------------||-----------------||-----------------||---------------------||
B||------------------||-----------------||-----------------||---------------------||
G||------------------||-----------------||-----------------||---------------------||
D||---2-2-2--0---0---||--2-2-2--0---0---||--2-2-2--0---0---||--2-2-2--0-----------||
A||---2-2-2--2---3---||--2-2-2--2---3---||--2-2-2--2---3---||--2-2-2--2---5-/-7---||
D||---0-0-0--0---2---||--0-0-0--0---2---||--0-0-0--0---2---||--0-0-0--0---3-/-5---||
     |::::::::|         |::::::::|         |::::::::|         |::::::::|

E||------------------||-----------------||-----------------||---------------------||
B||------------------||-----------------||-----------------||---------------------||
G||------------------||-----------------||-----------------||---------------------||
D||---2-2-2--0---0---||--2-2-2--0---0---||--2-2-2--0---0---||--2-2-2--0-----------||
A||---2-2-2--2---3---||--2-2-2--2---3---||--2-2-2--2---3---||--2-2-2--2---5-/-7---||
D||---0-0-0--0---2---||--0-0-0--0---2---||--0-0-0--0---2---||--0-0-0--0---3-/-5---||
     |::::::::|         |::::::::|         |::::::::|         |::::::::|

E||------------------||-----------------||-----------------||---------------------||
B||------------------||-----------------||-----------------||---------------------||
G||------------------||-----------------||-----------------||---------------------||
D||---2-2-2--0---0---||--2-2-2--0---0---||--2-2-2--0---0---||--2-2-2--0-----------||
A||---2-2-2--2---3---||--2-2-2--2---3---||--2-2-2--2---3---||--2-2-2--2---5-/-7---||
D||---0-0-0--0---2---||--0-0-0--0---2---||--0-0-0--0---2---||--0-0-0--0---3-/-5---||
            
Hard to play? Try these video lessons and learn fast. | Correct




comments powered by Disqus
↑ Back to top | Tablatures and chords are parodies/interpretations of the original songs. You may use it for private study, scholarship, research or language learning purposes only