» » »

Acolytes - Hand|E With Care Tabs (ver.1)

Artists:  A B C D E F G H I J K L M N O P Q R S T U V W X Y Z # 

Acolytes - Hand|E With Care Tabs (ver.1)

Unsigned
Rating:
0/5 (0 votes)

Hard to play? Try these video lessons and learn fast.
                This was the first song of this gr8 Bloemfontein band 

-|----------------------------|---------------------------|-----------------|-
-|----------------------------|---------------------------|-----------------|-
-|----------------------------|---------------------------|-----------------|-
-|----------------------------|---------------------------|-----------------|-
-|----3\2------------3\2------|------3\2----------3\2-----|-----------------|-
-|5--------3----5----------0--|---5-------3----5------1\5-|-----------------|-
 intro:(Clean)                                                                

-|-x--------x--------|--1----------3------/---5-------|---------------------|-
-|-x--------x--------|--1----------3------/---5-------|---------------------|-
-|-x--------x--------|--1----------3----5-/---5-----7-|---------------------|-
-|-x---x----x-----x--|--1----3-----3----5-/---5-----7-|---------x2----------|-
-|-x---x----x-----x--|--1----3-----3------/---5-------|---------------------|-
-|-x--------x--------|--1----------3------/---5-------|---------------------|-
  main riff 1.1:(Distortion)                                                  

-|-x----------x----|1---------3------\--1------|----------------------------|-
-|-x----------x----|1---------3------\--1------|----------------------------|-
-|-x----------x----|1---------3----5-\--1---3--|----------------------------|-
-|-x-----x----x---x|1----3----3----5-\--1---3--|----------------------------|-
-|-x-----x----x---x|1----3----3------\--1------|----------------------------|-
-|-x----------x----|1---------3------\--1------|----------------------------|-
 main riff 1.2:(Dist.)                                                        

-|-5-------5------|-5-------5------|-4-------4------|-3-------3------|------|-
-|-5-------5------|-5-------5------|-4-------4------|-3-------3------|------|-
-|-5---7---5---7--|-5-------5------|-4-------4------|-3-------3------|---x2-|-
-|-5---7---5---7--|-5---7---5---7--|-4---6---4---6--|-3---5---3---5--|------|-
-|-5-------5------|-5---7---5---7--|-4---6---4---6--|-3---5---3---5--|------|-
-|-5-------5------|-5-------5------|-4-------4------|-3-------3------|------|-
 Chorus Riff:(Dist.)                                                          

--555555/888888\777777\333333/555555/888888\000000----------------------------
 solo:                                                                        

-/\/\/\/\/\/\/\/\/\/\/\/\-----------------------------------------------------
 back to riff
            
Hard to play? Try these video lessons and learn fast. | Correct




comments powered by Disqus
↑ Back to top | Tablatures and chords are parodies/interpretations of the original songs. You may use it for private study, scholarship, research or language learning purposes only