» » »

Unsigned, Acf - Glory Me. Tabs (ver.1)

Artists:  A B C D E F G H I J K L M N O P Q R S T U V W X Y Z # 

Acf - Glory Me. Tabs (ver.1)

Unsigned Tabs
 Rating:
4/5 (4 votes)
Acf - Glory Me. lessons Tabs too difficult? Try these video lessons and learn fast
                THis is a solo i wrote, try it out... Its easy but if your good with scales and finger movement its a good way to pick up some moves. Enjoy. -JOHN!

E|-----------------------------------------------------------------------------
B|----------------------------------------------12p-------------14---14--14----14
G|-----------------------------12p---------12h14---h14-12h14-14^--14^--14^--14^
D|------------12p---------12h14---h14-12h14-------------------------------
A|-------12h24---h14-12h14------------------------------------------------
E|--12h14------------------------------------------------------------------

E|------------------------------------12-15-----------12-15-12-17-12------
B|-----14^------------------12~~-12-15-----15----12-15---------------15^~~--
G|--14^---12~----------12h14-----------------14~~--------------------------
D|-----------14\-/12h14-----------------------------------------------------
A|--------------------------------------------------------------------------
E|--------------------------------------------------------------------------

e|--------------------------------------------12-15-15-12-15-12-15-12-15-12
B|15-12----------------------------------12-15-----------------------------15^^^
G|-----14-12-14^~~~-----------------12-14----------------------------------
D|-----------------------------12-14--------------------------------------
A|-----------------------12-14---------------------------------------------
E|------------------12-15---------------------------------------------------

e|17p15p12-17p15p12p-17p15p12-17p15p12-17p15p12-----------------------------------
B|----------------------------------------------15p14p12------------------------
G|------------------------------------------------------15p14p12-----------------
D|-------------------------------------------------------------15p14p12-----------
A|---------------------------------------------------------------------15p14p12---
E|-----------------------------------------------------------------------------12~~~
            
Submit corrections

comments powered by Disqus
↑ Back to top | Unsigned Tabs for Acf - Glory Me.. Lyrics for acoustic guitar and electric guitar. Tablatures and chords are parodies/interpretations of the original songs. You may use it for private study, scholarship, research or language learning purposes only