>
 >
Aceglave - When You Lie

Aceglave - When You Lie Guitar Tabs

Unsigned - Aceglave - When You Lie chords, tabs, tablatures, lyrics

Guitar lessons | Add/correct | Request | Top 50 tabs Artists:  A B C D E F G H I J K L M N O P Q R S T U V W X Y Z 0-9

Aceglave - When You Lie Guitar Tabs – Unsigned

CD, Sheet music, Poster

Do you like Aceglave - When You Lie? Share with your friends now
Tabs
Intro 3x
E|---------------------------------------------------------------------------||
B|---------------------------------------------------------------------------||
G|-----7-------7-------------------------------------------------------------||
D|-----------7---7-----7-------7-------9-------9-------5-------5-------------||
A|-5-5---5-5-----------------7---7-----------9---9-----------5---5-----------||
E|-----------------5-5---5-5-------7-7---7-7-------3-3---3-3-----------------||

Verse 6x (last 4 are palm muted)
E|---------------------------------------------------------------------------||
B|---------------------------------------------------------------------------||
G|-7-7-7-7-7-7-7-7-----------------------------------------------------------||
D|-7-7-7-7-7-7-7-7--7-7-7-7-7-7-7-7--9-9-9-9-9-9-9-9--5-5-5-5-5-5-5-5--------||
A|-5-5-5-5-5-5-5-5--7-7-7-7-7-7-7-7--9-9-9-9-9-9-9-9--5-5-5-5-5-5-5-5--------||
E|------------------5-5-5-5-5-5-5-5--7-7-7-7-7-7-7-7--3-3-3-3-3-3-3-3--------||

Chorus 4x
E|---------------------------------------------------------------------------||
B|---------------------------------------------------------------------------||
G|-7-7-7-7-7-7-7-7--9-9-9-9-9-9-9-9-------------------7-7-7-7-7-7-7-7--------||
D|-7-7-7-7-7-7-7-7--9-9-9-9-9-9-9-9--9-9-9-9-9-9-9-9--7-7-7-7-7-7-7-7--------||
A|-5-5-5-5-5-5-5-5--7-7-7-7-7-7-7-7--9-9-9-9-9-9-9-9--5-5-5-5-5-5-5-5--------||
E|-----------------------------------7-7-7-7-7-7-7-7-------------------------||

Verse 6x (last 4 are palm muted)
E|---------------------------------------------------------------------------||
B|---------------------------------------------------------------------------||
G|-7-7-7-7-7-7-7-7-----------------------------------------------------------||
D|-7-7-7-7-7-7-7-7--7-7-7-7-7-7-7-7--9-9-9-9-9-9-9-9--5-5-5-5-5-5-5-5--------||
A|-5-5-5-5-5-5-5-5--7-7-7-7-7-7-7-7--9-9-9-9-9-9-9-9--5-5-5-5-5-5-5-5--------||
E|------------------5-5-5-5-5-5-5-5--7-7-7-7-7-7-7-7--3-3-3-3-3-3-3-3--------||

Bridge 2x
E|---------------------------------------------------------------------------||
B|---------------------------------------------------------------------------||
G|-3-3-3-3-3-3-3-3-----------------------------------------------------------||
D|-3-3-3-3-3-3-3-3--3-3-3-3-3-3-3-3--7-7-7-7-7-7-7-7--5-5-5-5-5-5-5-5--------||
A|-1-1-1-1-1-1-1-1--3-3-3-3-3-3-3-3--7-7-7-7-7-7-7-7--5-5-5-5-5-5-5-5--------||
E|------------------1-1-1-1-1-1-1-1--5-5-5-5-5-5-5-5--3-3-3-3-3-3-3-3--------||

Verse 6x
E|---------------------------------------------------------------------------||
B|---------------------------------------------------------------------------||
G|-7-7-7-7-7-7-7-7-----------------------------------------------------------||
D|-7-7-7-7-7-7-7-7--7-7-7-7-7-7-7-7--9-9-9-9-9-9-9-9--5-5-5-5-5-5-5-5--------||
A|-5-5-5-5-5-5-5-5--7-7-7-7-7-7-7-7--9-9-9-9-9-9-9-9--5-5-5-5-5-5-5-5--------||
E|------------------5-5-5-5-5-5-5-5--7-7-7-7-7-7-7-7--3-3-3-3-3-3-3-3--------||

Chorus 4x
E|---------------------------------------------------------------------------||
B|---------------------------------------------------------------------------||
G|-7-7-7-7-7-7-7-7--9-9-9-9-9-9-9-9-------------------7-7-7-7-7-7-7-7--------||
D|-7-7-7-7-7-7-7-7--9-9-9-9-9-9-9-9--9-9-9-9-9-9-9-9--7-7-7-7-7-7-7-7--------||
A|-5-5-5-5-5-5-5-5--7-7-7-7-7-7-7-7--9-9-9-9-9-9-9-9--5-5-5-5-5-5-5-5--------||
E|-----------------------------------7-7-7-7-7-7-7-7-------------------------||

Outtro 1x
E|-------------------------------------||
B|-------------------------------------||
G|-7-7-7-7-7-7-7-7--9-(let ring)-------||
D|-7-7-7-7-7-7-7-7--9------------------||
A|-5-5-5-5-5-5-5-5--7------------------||
E|-------------------------------------||


Intro 3x
Verse 6x
Chorus 4x
Verse 6x
Bridge 2x
Verse 6x
Chorus 4x
Outtro 1x





Comments


Popular Unsigned tabs & chords
Blender - So Mad Bass Tabs
Copper Flame - P.P.S Bass Tabs
Jj - Good Friend Bass Tabs
My Band - Some Weird Song I Made Up Bass Tabs
Acf - Glory Me. Tabs
Anachronism- Methadone Tabs
Blues 1 Tabs
Delorean-So Be It Tabs
Kitts - Doobiewickitywahwah Tabs
Lastdown - Why Dont You Care Tabs


Song lyrics



↑ Back to top | Tablatures and chords are parodies/interpretations of the original songs. You may use it for private study, scholarship, research or language learning purposes only
© 2014 AZChords.com Contact us | Privacy policy | DMCA | Add/correct tabs | Request tabs | Top 50 tabs