» » »

Abyss. - Omega White Tabs (ver.1)

Artists:  A B C D E F G H I J K L M N O P Q R S T U V W X Y Z # 

Abyss. - Omega White Tabs (ver.1)

Unsigned
Rating:
0/5 (0 votes)

Hard to play? Try these video lessons and learn fast.
                Tuning: Drop D 

Intro
e-----------------------------------------------------------------------------------|
B-----------------------------------------------------------------------------------|
G-----------------------------------------------------------------------------------|
D-----------------------------------------------------------------------------------|
A--------------5---------------5---------------5---------------5--------------------|
D--0-0-0-0-0-0-----0-0-0-0-0-0-----0-0-0-0-0-0----0-0-0-0-0-0-----------------------|
   |__P.M.___|     |__P.M.___|     |__P.M.___|     |__P.M.___|

e--------------------------------------------------------------------|
B--------------------------------------------------------------------|
G---------------7---------------7---------------7---------------7----|
D--0-0-0-0-0-0--x--0-0-0-0-0-0--x--0-0-0-0-0-0--x--0-0-0-0-0-0--x----|
A--0-0-0-0-0-0--5--0-0-0-0-0-0--5--0-0-0-0-0-0--5--0-0-0-0-0-0--5----|
D--0-0-0-0-0-0-----0-0-0-0-0-0-----0-0-0-0-0-0-----0-0-0-0-0-0-------|
   |__P.M.___|     |__P.M.___|     |__P.M.___|     |__P.M.___|

e-------------------------------------------------------------------|
B-------------------------------------------------------------------|
G---------------7---------------7---------------7---------------7---|
D--0-0-0-0-0-0--7--0-0-0-0-0-0--7--0-0-0-0-0-0--7--0-0-0-0-0-0--7---|
A--0-0-0-0-0-0--5--0-0-0-0-0-0--5--0-0-0-0-0-0--5--0-0-0-0-0-0--5---|  play twice
D--0-0-0-0-0-0-----0-0-0-0-0-0-----0-0-0-0-0-0-----0-0-0-0-0-0------|
   |__P.M.___|     |__P.M.___|     |__P.M.___|      |__P.M.__|

Verse
e--------------------------------------------------------------|
B--------------------------------------------------------------|
G--------------------------------------------------------------|
D----------0----------0------0----------0------3-3-----5-------|
A----------0----------0------0----------0------3-3-----5-------|
D--0-0-0-0-0--0-0-0-0-0--0-0-0--0-0-0-0-0--0-0-3-3-0-0-5-------|

e--------------------------------------------------------------|
B--------------------------------------------------------------|
G--------------------------------------------------------------|
D----------0----------0------0----------0------3-3-----5-------|
A----------0----------0------0----------0------3-3-----3-------|
D--0-0-0-0-0--0-0-0-0-0--0-0-0--0-0-0-0-0--0-0-3-3-0-0---------|

Chorus
e------------------------------------------------|  played with wah
B------------------------------------------------|
G--7--7--7-7-7--7-7-/-10-10-/-5-5-5--------------|
D--x--x--x-x-x--x-x----x--x----x-x-x-------*0----| 
A--5--5--5-5-5--5-5-/-8--8-/--3-3-3---------0----|  
D-------------------------------------------0----|
*play only when chorus is played twice, let ring until drums count in.

Bridge
e----------------------------------------------------------------|
B----------------------------------------------------------------|
G----------------------------------------------------------------|
D------------------------------------------------12-12-10-10-----|
A------------------------------------------------10-10-10-10-----|
D--0-0-0-*3*--0-0-0-*3*--0-0-0-*3*--0-0-0-*3*----------10-10-----|

Song Layout:
Intro 
Verse x 6
Chorus x 1
Verse x 4
Chorus x 2
Verse x 4
Chorus x 2
Bridge x 4
Verse x 4

A little about ourselves - we are a 4 peice gothic heavy metal band from perth western australia. we are 
very young and have only just started writing songs. as you can see these are very simple and basic but this
is a beginning song we hope to progress from here.
            
Hard to play? Try these video lessons and learn fast. | Correct




comments powered by Disqus
↑ Back to top | Tablatures and chords are parodies/interpretations of the original songs. You may use it for private study, scholarship, research or language learning purposes only