» » »

Abbey Normal-Zombie Massacre Tabs (ver.1)

Artists:  A B C D E F G H I J K L M N O P Q R S T U V W X Y Z # 

Abbey Normal-Zombie Massacre Tabs (ver.1)

Unsigned
Rating:
0/5 (0 votes)

Hard to play? Try these video lessons and learn fast.
                Standard Tuning

Music and Lyrics by Aaron Shanley

Aaron...Lead Guitar, Lead Vocals, Blazin' Leads
German...Rhythem Guitar, All-Around Good Guy
Josh...Bass, Chain Smoker
James...Drums, Percussion, Backup Vocals, Mr. Bad Attitude

This tab is of course all my own work.

X...Dead Note
~~...Pick Slide (Scr*pe)
*...Let Note Ring


Intro
--------------------------14-13-12-14-13-12-14-13--
--12-13-12-13-12-13-12-13--------------------------
---------------------------------------------------
---------------------------------------------------
---------------------------------------------------
---------------------------------------------------


Pre-Verse
------------------------------|   B |
------------------------------| D R |
------------------------------| R E |
--7777777777777777777777777---| U A |
--7777777777777777777777777---| M K |
--5555555555555555555555555---|     |

-----------------------------------------------
-----------------------------------------------
-----------------------------------------------
--7777777777777777777777777--------------------
--7777777777777777777777777--------------------
--5555555555555555555555555---13~~~~~~~~~~~~1--


Verse
-------------------------------
-------------------------------
-------------------------------
--77777777XX--99XX--10XX10-9*--
--77777777XX--99XX--10XX10-9*--
--55555555XX--77XX---8XX-8-7*--


Pre-Chorus
------------------------------------------------------
------------------------------------------------------
--5555----------------5555----------------------------
--5555-5555-7777-3333-5555-5555-7777---3---3---3---3--
--3333-5555-7777-3333-3333-5555-7777---3---3---3---3--
-------3333-5555-1111------3333-5555-0h1-0h1-0h1-0h1--


Chorus
---------------------
---------------------
--55555555-----------
--55555555-77777777--
--33333333-77777777--
-----------55555555--


Outro
---------------------------14-13-12-14-13-12-----
-------------------------------------------------
-------------------------------------------------
--99999999101010109999-7*---------------------7--
--99999999101010109999-7*---------------------7--
--77777777-8-8-8-87777-5*---------------------5--


Song Order
    --
Intro (x4)
Pre-Verse (x1)
Verse (x12)
Pre-Chorus (x2)
Chorus (x4)
Verse (x12)
Pre--Chorus (x2)
Chorus (x8)
Verse (x11)
Outro (x1)


Lyrics
  --
Zombie Massacre
Here they come
Zombie Massacre
Feast as one
Zombie Massacre
Came from hell
Zombie Massacre
They never fail
Zombie Massacre
Baby close your eyes
Zombie Massacre
As your spirit dies
Zombie Massacre
They're feast is never done
Zombie Massacre
Here they come, yea, come on

When theres no more room in hell
That's when these creatures roam
Whether it be in a shopping mall
Or in your very home
They feast on brains, they feast on flesh
They feast on all thats seen
They feast on blood, they feast on life
They feast on everything

Zombie Massacre
Run and hide
Zombie Massacre
Suicide
Zombie Massacre
Now your dead
Zombie Massacre
Bullet in your head
Zombie Massacre
Theres no escape
Zombie Massacre
Your knees start to shake
Zombie Massacre
Your demise
Zombie Massacre
Suicide, yea yea, lets go

When theres no more room in hell
That's when these creatures roam
Whether it be in a shopping mall
Or in your very home
They feast on brains, they feast on flesh
They feast on all thats seen
They feast on blood, they feast on life
They feast on everything
Yea, they feast on human beings
            
Hard to play? Try these video lessons and learn fast. | Correct




comments powered by Disqus
↑ Back to top | Tablatures and chords are parodies/interpretations of the original songs. You may use it for private study, scholarship, research or language learning purposes only