» » »

Aaron Doyle - I Dislike Frank Bass tabs (ver.1)

Artists:  A B C D E F G H I J K L M N O P Q R S T U V W X Y Z # 

Aaron Doyle - I Dislike Frank Bass tabs (ver.1)

Unsigned
Rating:
0/5 (0 votes)

Hard to play? Try these video lessons and learn fast.
                Intro

-----------------------------------------
-----------------------------------------  Reapeat 12
-----------------------------------------
0-3-4-5-0-3-4-5-0-0-0-3-4-5-0-3-4-5-0-0-0

courus
--------------------------------------
--------------------------------------    Repeat 5
---------3-3-3---------3-3-3-3-4-5----
0-h1-0-h1-----0-h1-0-h1-----------1-1-1

Verse
---------------------------------------------
---------------------------------------------
---------------------------------------------  Repeat 5
0-9-9-9-9-9-9-9-9-9-9-9-9-9-9-9-9-9-9-9-9-9-9


This is a fun song to play because every one hates frank
            
Hard to play? Try these video lessons and learn fast. | Correct




comments powered by Disqus
↑ Back to top | Tablatures and chords are parodies/interpretations of the original songs. You may use it for private study, scholarship, research or language learning purposes only