» » »

Unsigned, 7th Solution - Immortal Bass tabs (ver.1)

Artists:  A B C D E F G H I J K L M N O P Q R S T U V W X Y Z # 

7th Solution - Immortal Bass tabs (ver.1)

Unsigned Tabs
 Rating:
4/5 (4 votes)
7th Solution - Immortal lessons Tabs too difficult? Try these video lessons and learn fast
1
                7th Solution
Immortal

This is our first song as an all 13 year old band. Enjoy!

VERSE
G-------------9----------9-----------7----------7---
D-----9----7-----9---7-----7----5-----7---5--------- This bit play really fast
A--7----9------7---9-----5---7------5---7-----------
E---------------------------------------------------

CHORUS
G---------------------------------------------------
D-----9---11-11-7-7-5-5-5-5-5----------------------
A--7----0------------------------------------------
E---------------------------------------------------

INTERLUDE
G------------------------------------------------
D--11~--13~--14~--16-16-\-11~--13~--14~--16~-----
A------------------------------------------------
E------------------------------------------------

END ON
G--------------------------------------------------
D--------------------------------------------------
A--7~----------------------------------------------
E--------------------------------------------------

ORDER:

VERSE      X2
CHORUS     X2
VERSE      X2
CHORUS     X2
INTERLUDE  X1
CHORUS     X4
END ON     X1

Thats it! easy!
            
Submit corrections

comments powered by Disqus
↑ Back to top | Unsigned Bass for 7th Solution - Immortal. Lyrics for acoustic guitar and electric guitar. 1 Tablatures and chords are parodies/interpretations of the original songs. You may use it for private study, scholarship, research or language learning purposes only