» » »

Unsigned, 7th Solution - Black Widow Bass tabs (ver.1)

Artists:  A B C D E F G H I J K L M N O P Q R S T U V W X Y Z # 

7th Solution - Black Widow Bass tabs (ver.1)

Unsigned Tabs
 Rating:
4/5 (4 votes)
7th Solution - Black Widow lessons Tabs too difficult? Try these video lessons and learn fast
1
                Bassist : Browz (13 yrs old)
This song came from a person i write to,
who you could say i`ve began to like. Enjoy!!
Intro / Verse
G---------------------------------------------------------------
D---------------------------------------------------------------
A-0-2-2-2-2-0-3-3-3-3-0-2-2-2-2-0-5-5-5-5-0--------0------------         X4
E--------------------------------------------3-3-3---3-3-3------

Chorus
G------------------------------------------------     Play really fast
D---3------3-------3-----------------------------
A-5--0-3-5---0-3-5---0-3-5-stop with finger------       X3
E------------------------------------------------

When you come crawling.....
G-----------------------------------------------------
D-0-7-7-7-7-0-3-3-3-3-0-5-5-5-5-0-2-2-2-2~------------
A-----------------------------------------------------
E------------------------------------------------------

2nd Verse
G------------------------------------------------------------
D-0-0-0-0-6-6-6-6-5-5-5-5-2-2-2-2----------------------------
A------------------------------------------------------------    X4
E-------------------------------------------------------------


Chorus until end

This is one of my fave songs so learn it!!
            
Submit corrections

comments powered by Disqus
↑ Back to top | Unsigned Bass for 7th Solution - Black Widow. Lyrics for acoustic guitar and electric guitar. 1 Tablatures and chords are parodies/interpretations of the original songs. You may use it for private study, scholarship, research or language learning purposes only