» » »

70x7-Alwayz Tabs (ver.1)

Artists:  A B C D E F G H I J K L M N O P Q R S T U V W X Y Z # 

70x7-Alwayz Tabs (ver.1)

Unsigned
Rating:
0/5 (0 votes)

Hard to play? Try these video lessons and learn fast.
                Guitar 1
Tuned down 2 frets(whole note)

A.(Intro)

d-------------------------------------
a-------------------------------------
f-----9-8-----9-8------9-8-----9-8-11-
c---------9-------9--------9-9--------
g---9-------6-------11-------7--------
D---7-------4--------9----------------

B.(Verse)

d----------------------------------------------------------------------------
a----------------------------------------------------------------------------
f----------------------------------------------------------------------------
c-------------------9-9-9-9-9-9-9-9----------------------------------9-9-9-9-
g---9-9-9-9-9-9-9-9-7-7-7-7-7-7-7-7-6-6-6-6-6-6-6-6-4*-4*-4*-2-2-2-2-7-7-7-7-
D---7-7-7-7-7-7-7-7-----------------4-4-4-4-4-4-4-4-2*-2*-2*-0-0-0-0---------

C.(Chorus)

d-------------------------------------------------------------------
a-------------------------------------------------------------------
f-------------------------------------------------------------------
c---------------------------------------------------9-9-9-9-9-9-9-9-
g---9-9-9-9-9-9-9-9-4-4-4-4-4-4-4-4-2-2-2-2-2-2-2-2-7-7-7-7-7-7-7-7-
D---7-7-7-7-7-7-7-7-2-2-2-2-2-2-2-2-0-0-0-0-0-0-0-0-----------------

D.(Breakdown)

d-------------------------------------------------------------------
a-------------------------------------------------------------------
f-------------------------------------------------------------------
c-------------------4---4---------------------------4-4-4-4---------
g---6---6---2---2---2---2---4---4---6---6---2---2---2-2-2-2-4-4-4-4-
D---4---4---0---0-----------2---2---4---4---0---0-----------2-2-2-2-

E.

d-----------------------------------
a-----------------------------------
f-----------------------------------
c---------------------------9-9-9-9-
g---9-9-9-9-4-4-4-4-2-2-2-2-7-7-7-7-
D---7-7-7-7-2-2-2-2-0-0-0-0---------

F.

d----------------7-----7------------------7-----7/9-7-
a------------------5-----5------------------5---------
f---9-8-9-11-9-8-----4-----4/9-8-9-11-9-8-----4-------
c-----------------------------------------------------
g-----------------------------------------------------
D-----------------------------------------------------

ORDER: Open with the first note(A)
Ax4, Bx2, Cx4, Ax2, Bx2, Cx4, D, Ex2, Cx4, Ax2, F, Ax2
End on "A"
            
Hard to play? Try these video lessons and learn fast. | Correct




comments powered by Disqus
↑ Back to top | Tablatures and chords are parodies/interpretations of the original songs. You may use it for private study, scholarship, research or language learning purposes only