» » »

5 Seconds Ago - Screamo Song Bass tabs (ver.1)

Artists:  A B C D E F G H I J K L M N O P Q R S T U V W X Y Z # 

5 Seconds Ago - Screamo Song Bass tabs (ver.1)

Unsigned
Rating:
0/5 (0 votes)

Hard to play? Try these video lessons and learn fast.
                Guitar Intro

Verse
G-------------------------------------------
D-44444444----------------------------------           5x
A-------------------5555555555555555--------
E----------33333333-------------------------

Chorus
G--------------------------------------
D---------44444-R----------------------        2x
A-55555-R------------------------------
E------------------3333333333333333----

Verse
G-------------------------------------------
D-44444444----------------------------------           5x
A-------------------5555555555555555--------
E----------33333333-------------------------

Chorus
G--------------------------------------
D---------44444-R----------------------        3x
A-55555-R------------------------------
E------------------3333333333333333----

Break
G--------------
D-----4~-------          3x
A-5~-----------
E---------3~---

Verse
G-------------------------------------------
D-44444444----------------------------------           3x
A-------------------5555555555555555--------
E----------33333333-------------------------

Break
G--------------
D-----4~-------          5x
A-5~-----------
E---------3~---
            
Hard to play? Try these video lessons and learn fast. | Correct




comments powered by Disqus
↑ Back to top | Tablatures and chords are parodies/interpretations of the original songs. You may use it for private study, scholarship, research or language learning purposes only