>
 >
5ive Pm Untitled Guitar

5ive Pm Untitled Guitar Guitar Tabs

Unsigned - 5ive Pm Untitled  Guitar chords, tabs, tablatures, lyrics

Guitar lessons | Add/correct | Request | Top 50 tabs Artists:  A B C D E F G H I J K L M N O P Q R S T U V W X Y Z 0-9

5ive Pm Untitled Guitar Guitar Tabs – Unsigned

CD, Sheet music, Poster

Do you like 5ive Pm Untitled Guitar? Share with your friends now
Tabs
GUITAR 1 

INTRO 
E|-------------------|
B|-3--3--3-2--0--2---|
G|--22-22-2-22-00-2--|
D|-------------------|
A|-------------------|
E|-------------------| X3
pm ................ 

E|------------|
B|-3--3--3-2--|
G|--22-22-2---|
D|------------|
A|------------|
E|------------| X1
pm ......... 

E|-----------------------------------|
B|-3--3--3-2--0--2-3--3--3-2--0--2---|
G|--22-22-2-22-00-2-22-22-2-22-00-2--|
D|-----------------------------------|
A|-----------------------------------|
E|-----------------------------------| X1 

E|---------0--3--2---------0--3--2--2~--|
B|-3--3--3---------3--3--3----------3~--|
G|--22-22-2-22-00-2-22-22-2-22-00-2-2~--|
D|----------------------------------0~--|
A|----------------------------------0~--|
E|----------------------------------x~--| x1

CHORUS
E|------------------|
B|-3-----2--0-0h2---|
G|----2----------2--|
D|------------------|
A|------------------|
E|------------------| X3

E|-----------------|
B|-3--2--0--2----2-|
G|-------------2---|
D|-----------------|
A|-----------------|
E|-----------------| X1

E|-------------------|
B|-3-----2--0-0h2----|
G|----2----------2---|
D|-------------------|
A|-------------------|
E|-------------------| X3



E|-----------------|
B|-3--2--0--2----2-|
G|-------------2---|
D|-----------------|
A|-----------------|
E|-----------------| X1

CHORUS X1
(BRIDGE)
CHORUS X2

GUITAR 2

INTRO/PRE-VERSE
E|-----------------------------|
B|-----------------------------|
G|-7~--------------------------|
D|-7~--------------55555555-7--|
A|-5~--------------55555555-7--|
E|-----------------33333333-5--| X1

INTRO PART 2
E|--------------------------------------|
B|--------------------------------------|
G|-77777777----------44444444-----------|
D|-77777777-44444444-44444444-55555555--|
A|-55555555-44444444-22222222-55555555--|
E|----------22222222----------33333333--| X4

VERSE 
E|--------------------------------------|
B|--------------------------------------|
G|-77777777----------44444444-----------|
D|-77777777-44444444-44444444-55555555--|
A|-55555555-44444444-22222222-55555555--|
E|----------22222222----------33333333--| X2
pm   . . .    . . .    . . .    . . .       

PRE-CHORUS
E|-------------------------------------------------------------|
B|-------------------------------------------------------------|
G|-777777777---------------------------------------------------|
D|-777777777-------777777777-------555555555-------777777779~--|
A|-555555555-------777777777-------555555555-------777777779~--|
E|-----------------555555555-------333333333-------555555557~--| X1

CHORUS
E|----------------------------------------------------------------------|
B|----------------------------------------------------------------------|
G|-7777777777777777-----------------------------------------------------|
D|-7777777777777777-5555555555555555-9999999999999999-7777777777777777--|
A|-5555555555555555-5555555555555555-9999999999999999-7777777777777777--|
E|------------------3333333333333333-7777777777777777-5555555555555555--|

E|-----------------------------------------------------------------------|
B|-----------------------------------------------------------------------|
G|-7777777777777777-9999999999999999-------------------------------------|
D|-7777777777777777-9999999999999999-9999999999999999-55555555-77777777--|
A|-5555555555555555-7777777777777777-9999999999999999-55555555-77777777--|
E|-----------------------------------7777777777777777-33333333-55555555--|

PRE-VERSE X1
VERSE X2
PRE-CHORUS X1
CHORUS X1

BRIDGE
E|--------------------------------------|
B|--------------------------------------|
G|-77777777-------------------44444444--|
D|-77777777-77777777-55555555-44444444--|
A|-55555555-77777777-55555555-22222222--|
E|----------55555555-33333333-----------| X4
pm ........ ........ ........ ........ 

PRE-CHORUS (PART 2)
E|----------------------------------------------------------------|
B|----------------------------------------------------------------|
G|-7777777777777777-----------------------------------------------|
D|-7777777777777777-7777777777777777-5555555555555555-77777777-9--|
A|-5555555555555555-7777777777777777-5555555555555555-77777777-9--|
E|------------------5555555555555555-3333333333333333-55555555-7--| X1

CHORUS X2





Comments


Popular Unsigned tabs & chords
Giant Caterpillar-Lords Of Hell Bass Tabs
Ingrown - All I Wanna Do Bass Tabs
Less Than Zero - Fake Reality Bass Tabs
Smd - Messed Up Bass Tabs
Dogfood Tabs
Dropouts- This Is How I Feel Tabs
F.A.T.H - Warfield Tabs
Kudrna-Time Tabs
Lead Dove- Seed Tabs
Man Bai-Kau Ilhamku Tabs


Song lyrics



↑ Back to top | Tablatures and chords are parodies/interpretations of the original songs. You may use it for private study, scholarship, research or language learning purposes only
© 2014 AZChords.com Contact us | Privacy policy | DMCA | Add/correct tabs | Request tabs | Top 50 tabs