» » »

5ive Pm - My Lead Bass tabs (ver.1)

Artists:  A B C D E F G H I J K L M N O P Q R S T U V W X Y Z # 

5ive Pm - My Lead Bass tabs (ver.1)

Unsigned
Rating:
0/5 (0 votes)

Tabs too difficult? Try these video lessons and learn fast.
                Verse
G|----545340--|
D|3-0---------|
A|------------|
E|------------|

G|---------------|
D|5-3-0-4-2-3-0--| 
A|---------------|
E|---------------| x4

G|----545340--|
D|3-0---------|
A|------------|
E|------------|

G|---------5-3--4--2--0--|
D|5-2-3-0----------------|
A|-----------------------|
E|-----------------------|

Chorus
G|---------------------------------------|
D|3333-0000-55555555-3333-0000-77755666--|
A|---------------------------------------|
E|---------------------------------------|

G|------------------------------------------|
D|33333333-00000000-55555555-5-3-0-5-2-3-0--|
A|------------------------------------------|
E|------------------------------------------|

Verse
G|----545340--|
D|3-0---------|
A|------------|
E|------------|

G|-------------|
D|5-3-0-5-3-2--| 
A|-------------|
E|-------------| 

G|----545340--|
D|3-0---------|
A|------------|
E|------------|

G|---------------|
D|5-3-0-5-2-3-0--| 
A|---------------|
E|---------------| x3

Bridge
            
Tabs too difficult? Try these video lessons and learn fast.




comments powered by Disqus
↑ Back to top | Tablatures and chords are parodies/interpretations of the original songs. You may use it for private study, scholarship, research or language learning purposes only