» » »

Unsigned, 40footfall - F.A.L.L Tabs (ver.1)

Artists:  A B C D E F G H I J K L M N O P Q R S T U V W X Y Z # 

40footfall - F.A.L.L Tabs (ver.1)

Unsigned Tabs
Rating:
0/5 (0 votes)
40footfall - F.A.L.L lessons Tabs too difficult? Try these video lessons and learn fast
                this is my band from a very small town in southern Manitoba, Canada.

40FootFall - F.A.L.L (forever always loving life)



  after the open hi-hat
   intro
E|---------------------------------------------------------------------------||
B|---------------------------------------------------------------------------||
G|-------------------------------------------------------------------2x------||
D|--00-03-00-3-003-00-03-0-888888-33--00-03-00-3-003-00-03-0-232-0-----------||
A|--00-03-00-3-003-00-03-0-888888-33--00-03-00-3-003-00-03-0-232-0-----------||
D|--00-03-00-3-003-00-03-0-888888-33--00-03-00-3-003-00-03-0-232-0-----------||
    ** *  **   **  ** *  *            ** *  **   **  ** *  *
  distorted



  verse
E|---------------------------------------------------------------------------||
B|---------------------------------------------------------------------------||
G|---------------------------------------------------------------------------||
D|----------------------------------4x---------------------------------------||
A|---------------------------------------------------------------------------||
D|--00-0676-00-0676-00-0676-09-11-12-----------------------------------------||
   clean
   
   pre- chorus
E|---------------------------------------------------------------------------||
B|---------------------------------------------------------------------------||
G|---------------------------------------------------------------------------||
D|--00-03--------00-03---8888---00-03------00-03--232------------------------||
A|--00-03---3x---00-03---8888---00-03--3x--00-03--232------------------------||
D|--00-03--------00-03---8888---00-03------00-03--232------------------------||
   chorus
E|---------------------------------------------------------------------------||
B|---------------------------------------------------------------------------||
G|---------------------------------------------------------------------------||
D|--000-0-3-8888-11-12-12-12-12----------------------------------------------||
A|--000-0-3-8888-11-12-12-12-12---4x-----------------------------------------||
D|--000-0-3/8888-11/12-12-12-12----------------------------------------------||
             **   *     *  *
    distorted

   bridge
E|---------------------------------------------------------------------------||
B|---------------------------------------------------------------------------||
G|---------------------------------------------------------------------------||
D|---------------------------------------------------------------------------||
A|---------------------------------------------------------------------------||
D|--00-03-003-003-00-03-00323 00-03-003-003-00-------------------------------||
                                              drum roll
E|---------------------------------------------------------------------------||
B|---------------------------------------------------------------------------||
G|-------------------------------------------------------------------2x------||
D|--00-03-00-3-003-00-03-0-888888-33--00-03-00-3-003-00-03-0-232-0-----------||
A|--00-03-00-3-003-00-03-0-888888-33--00-03-00-3-003-00-03-0-232-0-----------||
D|--00-03-00-3-003-00-03-0-888888-33--00-03-00-3-003-00-03-0-232-0-----------||
    ** *  **   **  ** *  *            ** *  **   **  ** *  *

chorus 4x



   outro

   guitar 1
E|---------------------------------------------------------------------------||
B|---------------------------------------------------------------------------||
G|-------------------------------------------------------------------4x------||
D|--00-03-00-3-003-00-03-0-888888-33--00-03-00-3-003-00-03-0-232-0-----------||
A|--00-03-00-3-003-00-03-0-888888-33--00-03-00-3-003-00-03-0-232-0-----------||
D|--00-03-00-3-003-00-03-0-888888-33--00-03-00-3-003-00-03-0-232-0-----------||
    ** *  **   **  ** *  *            ** *  **   **  ** *  *

  guitar 2
E|---------------------------------------------------------------------------||
B|---------------------------------------------------------------------------||
G|---------------------------------------------------------------------------||
D|--000-0-3-8888-11-12-12-12-12----------------------------------------------||
A|--000-0-3-8888-11-12-12-12-12---4x-----------------------------------------||
D|--000-0-3/8888-11/12-12-12-12----------------------------------------------||
             **   *     *  *

E|------------------||
B|------------------||
G|------------------||
D|-00---------------||
A|-00---------------||
D|-00---------------||
   **
and click on music then just click on "FALL".
            
Submit corrections

comments powered by Disqus
↑ Back to top | Unsigned Tabs for 40footfall - F.A.L.L. Lyrics for acoustic guitar and electric guitar. Tablatures and chords are parodies/interpretations of the original songs. You may use it for private study, scholarship, research or language learning purposes only