» » »

3foagcb- Tomorrows Not Another Day Tabs (ver.1)

Artists:  A B C D E F G H I J K L M N O P Q R S T U V W X Y Z # 

3foagcb- Tomorrows Not Another Day Tabs (ver.1)

Unsigned
Rating:
0/5 (0 votes)

Tabs too difficult? Try these video lessons and learn fast.
                Intro
Guitars One and Two

e------------------------|
B------------------------|
G-3-3-3-3-------3--------|
D-3-3-3-3--3-3--3--3-----|
A-1-1-1-1--3-3--1--3-----|
E----------1-1-----1-----|     (X2)


Verse
Guitars one and two

e-----------------------------------------------------------------------------------|
B-----------------------------------------------------------------------------------|
G-5-5-5-5------------7-7-7-7------------9-9-9-9------------3-3-3-3------------3-----|
D-5-5-5-5--5-5-5-5---7-7-7-7--7-7-7-7---9-9-9-9--9-9-9-9---3-3-3-3---3-3-3-3--3--3--|
A-3-3-3-3--5-5-5-5---5-5-5-5--7-7-7-7---7-7-7-7--9-9-9-9---1-1-1-1---3-3-3-3--1--3--|
E----------3-3-3-3------------5-5-5-5------------7-7-7-7-------------1-1-1-1-----1--|


Chorus
Guitar One (Lead)

e----------------------------------------|
B---------------------------------------|
G----2-----2-----2-----2--------------|
D--4----3-----2-----2-----------------|
A---------------------------------------|
E---------------------------------------|


Chorus
Guitar Two (Rhythm)

D minor
A minor
F major



Shift
Guitars one and two

D minor (First time)
D minor, D minor, A minor (Second time)


Riff (temporary)
Guitar One, possibly guitar two, Bass

e-----------------------------------------------------------------------------------|
B-----------------------------------------------------------------------------------|
G-----------------------------------------------------------------------------------|
D------------------------------------------------------------------------2-1--------|
A------------2-0-3-2-------------2-0-3-2-------------2-0-3-2----------2-------------|
E--0-2-3-0------------0-2-3-0-------------0-2-3-0--------------0-2-3----------------|


Order:
Intro
Verse
Verse
Chorus
Chorus
Shift (first time)
Intro
Verse
Riff
Chorus
Chorus
Chorus 
Chorus
Shift (Second Time)


Enjoy.
            
Tabs too difficult? Try these video lessons and learn fast.


comments powered by Disqus
↑ Back to top | Tablatures and chords are parodies/interpretations of the original songs. You may use it for private study, scholarship, research or language learning purposes only