>
 >
241 - Confusion Part Six

241 - Confusion Part Six Guitar Tabs

Unsigned - 241 - Confusion Part Six chords, tabs, tablatures, lyrics

Guitar lessons | Add/correct | Request | Top 50 tabs Artists:  A B C D E F G H I J K L M N O P Q R S T U V W X Y Z 0-9

241 - Confusion Part Six Guitar Tabs – Unsigned

CD, Sheet music, Poster

Do you like 241 - Confusion Part Six? Share with your friends now
Tabs
If you want to hear the song, IM me on AOL Instant Messenger, The241Guitarist

p - pull-off
P.M - palm mute
x - mute string with fretting hand

Intro
e]--------------------------------]
B]--------------------------------]
G]--------------------------------]
D]--5-5-5--5-5-5--5-5-55----5-5-5-]
G]-------------------------5-3-2--]
D]3--3-3-2--2-0-3--3-3-5----------]

Verse
e]---------------------------------------------------]
B]---------------------------------------------------]
G]---------------------------------------------------]
D]5555555555555555-5555555555555555-5555555555555555-]
G]5555555555555555-5555555555555555-5555555555555555-]
D]3333333333333330-2222222222222220-3333333333333330-]

(verse continued)
e]-----------------]
B]-----------------]
G]-----------------]
D]7777777777777777-]
G]7777777777777777-]
D]5555555555555555-]

Pre-Chorus
e]-------------------------------------------------------]
B]-------------------------------------------------------]
G]--------------------------------------7777777755555555-]
D]----5-----5-----5-----5-3333-5-3333-5-7777777777775555-]
G]5555--5555--2222--2222--3333---3333---5555555555555555-]
D]3333--3333--0000--0000---------------------------------]
PM----  ----  ----  ----  ----   ----   ----

Chorus
e]--------------------------------------------------]
B]--------------------------------------------------]
G]--------------------------------------------------]
D]5-5-5-55555-------22222-3-3-3-33333-7-7-7-7775-55-]
G]5-5-5-55555-2-2-2-22222-3-3-3-33333-5-5-5-5555-55-]
D]3-3-3-33333-0-0-0-00000---------------------------]

Bridge Part One
e]------------------------]
B]----3-----3-----3-----3-]
G]---0-----0-----0-----0--]
D]-0----------------------]
G]-------3-----------0----]
D]-------------3----------]

Bridge Part Two
e]-x-x-xx---x-x-xxxx---xx---xxx-xx-]
B]-3-3-33---3-3-3333---33---333-33-]
G]-0-0-00---0-0-0000---00---000-00-]
D]-x-x-xx---x-x-xxxx---xx---xxx-xx-]
G]-0-0-00---3-3-3333---xx---000-00-]
D]-x-x-xx---x-x-xxxx---33---xxx-xx-]

Bridge Part Three
e]---------------------------------]
B]---------------------------------]
G]---------------------------------]
D]-0-0-00---3-3-3333--------000-00-]
G]-0-0-00---3-3-3333---55---000-00-]
D]---------------------33----------]

Lead
e]------------------------------------------------]
B]------------------------------------------------]
G]-5p3-5p3-5-7p5-7p5-7-9p7-9p7-9-12p10--14p12--14-]
D]----3---3-----5---5-----7---7-------10-----12---]
G]------------------------------------------------]
D]------------------------------------------------]

Outro
e]---]
B]---]
G]---]
D]-0-]
G]-0-]
D]---]

ORDER:
Intro - 2
Verse - 2
Pre-Chorus - 1
Chorus - 2
Intro - 2
Verse - 2
Pre-Chorus - 1  
Chorus - 2
Bridge Part One - 2
Bridge Part Two - 6
Bridge Part Three - 8
Lead - 6   (start playing at the 5th 'Bridge Part Three')
Outro - 1 (let ring)





Comments


Popular Unsigned tabs & chords
1-14 Bass Tabs
Blackmail - Please Report Bass Tabs
Buzz Bombs - Screw Cops Bass Tabs
Chain - Show Me Bass Tabs
Original Bass Tabs
The Black Alliance- Masters Fault Bass Tabs
Friday Night Fights-You And Me Tabs
Hostile Takeover- Hostile Wishes Tabs
Last Ones To Heaven - Untitled Tabs
Less Than Nothing - Show & Tell Tabs


Song lyrics



↑ Back to top | Tablatures and chords are parodies/interpretations of the original songs. You may use it for private study, scholarship, research or language learning purposes only
© 2014 AZChords.com Contact us | Privacy policy | DMCA | Add/correct tabs | Request tabs | Top 50 tabs