» » »

1984 - Political Checkup Tabs (ver.1)

Artists:  A B C D E F G H I J K L M N O P Q R S T U V W X Y Z # 

1984 - Political Checkup Tabs (ver.1)

Unsigned
Rating:
0/5 (0 votes)

Hard to play? Try these video lessons and learn fast.
                - - political checkup - -

[intro]
   |-----------------------------|-------------------------------------------|
   |-----------------------------|-------------------------------------------|
   |-----------------------------|-------------------------------------------|
   |-----------------------------|-------------------------------------------|
   |---14-14-13-13-12-12-11-11---|---9--9--9--9-9-9---11--11--11--11-11-11---|
   |---12-12-11-11-10-10--9--9---|---7--7--7--7-7-7---9---9---9---9--9--9----|
    \             3x            / \                  1x                     /

[verse]
   |-------------------------------|----------------------------------------|
   |-------------------------------|----------------------------------------|
   |-------------------------------|----------------------------------------|
   |-------------------------------|----------------------------------------|
   |---14-14--13 \ 11--------------|---9--9--9--9-9-9---11--11--11--11-11-11|
   |---12-12--11 \  9--------------|---7--7--7--7-7-7---9---9---9---9--9--9-|
    \             3x              / \                  1x                  /

[chorus]
   |--------------------------------------------|
   |--------------------------------------------|
   |--------------------------------------------|
   |---14--14--14--14---11--11---9-9------------|
   |---12--12--12--12----9---9----7-7-----------|
   |--------------------------------------------|
    \                       4x                          /

song order:
  intro
  verse
  chorus
  verse
  intro
  chorus
  verse
  intro

Thanks for reading this tab, it means alot to me and the band, all of us.
            
Hard to play? Try these video lessons and learn fast. | Correct




comments powered by Disqus
↑ Back to top | Tablatures and chords are parodies/interpretations of the original songs. You may use it for private study, scholarship, research or language learning purposes only