» » »

Unsigned, 1-15 Bass tabs (ver.1)

Artists:  A B C D E F G H I J K L M N O P Q R S T U V W X Y Z # 

1-15 Bass tabs (ver.1)

Unsigned Tabs
 Rating:
4/5 (4 votes)
1-15 lessons Tabs too difficult? Try these video lessons and learn fast
                Please Rate this. Thanks

Intro
------------------------------
------------------------------
--0---00---0---0-0-0-0-2h3h4--
------------------------------

Pre-Verse
---------------------
---------------------
--0-0-0-0-0-0-2h3p2--
---------------------

Verse
---------------------------------
---------------------------------
--2-2-2-2-2-2-2-0-3-4-3-5-4-3-0--
---------------------------------

Chorus
-----------------------------------
-----------------------------------
--2-2-2-0-3-3-3-0-1-1-1-0-2-2-2-0--
-----------------------------------

Bridge/Solo Part 1
------------------------------------------------------------
------------------------------------------------------------
--5-5-5-0-3-3-0------4-5-6-7-0-5-5-5-0-3-3-3-0-7-6-5-4-4-4--
----------------5~-5----------------------------------------

Bridge/Solo Part 2
-------------------------------
-------------------------------
--9-9-9-x-7-7-7-x-5-7-5-4-4-4--
-------------------------------

Riff
-----------------------------------
-----------------------------------
--0-0-0-0-0-0-0-0-3-3-3-3-3-3-3-3--
-----------------------------------

Structure:
Intro                x2
Pre-Verse            x4
Verse                x4
Chorus               x4  fourth time through play last 0 as a 2
Pre-Verse            x4
Verse                x4
Chorus               x4
Bridge/Solo Part 1   x2
Bridge/Solo Part 2   x4
Riff                 x1
Chorus               x4  fourth time through play last 0 as a 2
Pre-Verse            x4
Verse                x4
Chorus               x4
            
Submit corrections

comments powered by Disqus
↑ Back to top | Unsigned Bass for 1-15. Lyrics for acoustic guitar and electric guitar. Tablatures and chords are parodies/interpretations of the original songs. You may use it for private study, scholarship, research or language learning purposes only