» » »

Disgust Tabs (ver.1)

Artists:  A B C D E F G H I J K L M N O P Q R S T U V W X Y Z # 

Disgust Tabs (ver.1)

The Unseen
Rating:
0/5 (0 votes)

Tabs too difficult? Try these video lessons and learn fast.
                -----------------------------------------------------------------
DISGUST - Unseen
-----------------------------------------------------------------
Tuning: Standard

Intro:
e|------------------------|
B|------------------------|
G|7777777777777777-7------|
D|7777777777777777-7(hold)|
A|5555555555555555-5------|
E|------------------------|

Verse:
e|----------------------------------------------|
B|----------------------------------------------|
G|77----------77----------77----------77--------|
D|77-77-5555--77-77-5555--77-77-5555--77-77-5555|
A|55-77-5555--55-77-5555--55-77-5555--55-77-5555|
E|---55-3333-----55-3333-----55-3333-----55-3333|

Bridge:
e|----------------------------------------------|
B|----------------------------------------------|
G|------9-77--------9-77--------9-77--------9-77|
D|77/99-9-77--77/99-9-77--77/99-9-77--77/99-9-77|
A|77/99-7-55--77/99-7-55--77/99-7-55--77/99-7-55|
E|55/77-------55/77-------55/77-------55/77-----|

Chorus:
e|------------------------------|
B|------------------------------|
G|------999-7-77---------99-7-77|
D|7-7-9-999-7-77--7-7-99-99-7-77|
A|7-7-9-777-5-55--7-7-99-77-5-55|
E|5-5-7-----------5-5-77--------|

Ending:
e|---
B|---
G|-7-
D|-7-
A|-5-
E|---

Order:

Intro
Verse
Bridge
Chorus
Verse
Bridge
Chorus
Verse
Bridge
Chorus
Ending
            
Tabs too difficult? Try these video lessons and learn fast.


comments powered by Disqus
↑ Back to top | Tablatures and chords are parodies/interpretations of the original songs. You may use it for private study, scholarship, research or language learning purposes only