» » »

Countdown Tabs (ver.2)

Artists:  A B C D E F G H I J K L M N O P Q R S T U V W X Y Z # 

Countdown Tabs (ver.2)

The Unseen
Rating:
0/5 (0 votes)

Tabs too difficult? Try these video lessons and learn fast.
                -----------------------------------------------------------------
Countdown - Unseen
-----------------------------------------------------------------

Tuning:Standard

Intro:
e|---------------------------------------------------------------|
B|---------------------------------------------------------------|
G|---------------------------------------------------------------|
D|---------------------------------------------------------------|
A|---------------------------------------------------------------|
E|-5-(feeeeeeeeedbaaaaaack)-0h5----------------------------------|

Verse:
e|---------------------------------------------------------------|
B|---------------------------------------------------------------|
G|---------999---------------------------------------------------|
D|-7777777-999-10101010--(play this 8 times)---------------------|
A|-7777777-777-10101010------------------------------------------|
E|-5555555------8-8-8-8------------------------------------------|

Chourus:
e|---------------------------------------------------------------|
B|---------------------------------------------------------------|
G|---------------------------------------------------------------|
D|-1010-1111-1010-88---------------------------------------------|
A|-1010-1111-1010-88---------------------------------------------|
E|-8-8--1010-8-8--66---------------------------------------------|

| / slide up
| \ slide down
| h hammer-on
| p pull-off
| ~ vibrato
| + harmonic
| x Mute note
            
Tabs too difficult? Try these video lessons and learn fast.


comments powered by Disqus
↑ Back to top | Tablatures and chords are parodies/interpretations of the original songs. You may use it for private study, scholarship, research or language learning purposes only