» » »

Unsane, Commited Tabs (ver.1)

Artists:  A B C D E F G H I J K L M N O P Q R S T U V W X Y Z # 

Commited Tabs (ver.1)

Unsane Tabs
 Rating:
4/5 (4 votes)
Commited lessons Tabs too difficult? Try these video lessons and learn fast
1
                (Intro)
----------------------------------------------------------------------------
                             Commited - Unsane
----------------------------------------------------------------------------

Tuning: Standard


e|---7-----------7----------------------------------------------------------|
B|-----8-----------8--------------------------------------------------------|
G|--------9----------9------------------------------------------------------|
D|-9------------9------------12---11---10---9-8-7---------------------------|
A|-9------------9----------7----7----7----7---------------------------------|
E|-7------------7-----------------------------------------------------------|

I was playing tony hawk 1 the other day and heard this song and wanted to find
a tab for it but i couldnt so i did it myself. any help with the rest of the
song is appreciated.
            
Submit corrections

comments powered by Disqus
↑ Back to top | Unsane Tabs for Commited. Lyrics for acoustic guitar and electric guitar. 1 Tablatures and chords are parodies/interpretations of the original songs. You may use it for private study, scholarship, research or language learning purposes only