» » »

Unsane, Backslide Bass tabs (ver.1)

Artists:  A B C D E F G H I J K L M N O P Q R S T U V W X Y Z # 

Backslide Bass tabs (ver.1)

Unsane Tabs
 Rating:
4/5 (4 votes)
Backslide lessons Tabs too difficult? Try these video lessons and learn fast
1
                

Tuning: D G C F (whole step down)

00:04 - 00:14

|----------------------------------------------------|
|----------------------------------------------------|
|--3----------3---0--------3-------3---0-0-0-0-0-0-0-|
|----2-0----2---2---2-0------2-0-2---2---------------|

00:14 - 00:24

|----------------------------------------------------|
|----------------------------------------------------|
|--3----------3---0--------3-------3---1-1-1-1-1-1-1-|
|----2-0----2---2---2-0------2-0-2---2---------------|

01:00 - 01:10

|--------------------------------------------------------------|
|--------------3-3-3--4-4-4-4----------------------------------|
|--3-3--6-6-6----------------------3-3--6-6-6---5-5-5--4-4-4-4-|
|--------------------------------------------------------------|

02:33 - 02:38

|------------------------------------|
|------------------------------------|
|--5-----5-----5---------------------|
|----4-4---4-4---4---1-1-1-2-2-3-3-3-|
            
Submit corrections

comments powered by Disqus
↑ Back to top | Unsane Bass for Backslide. Lyrics for acoustic guitar and electric guitar. 1 Tablatures and chords are parodies/interpretations of the original songs. You may use it for private study, scholarship, research or language learning purposes only